  0
SECTION
  2
HEADER
  9
$ACADVER
  1
AC1012
  9
$DWGCODEPAGE
  3
ansi_1252
  9
$INSBASE
 10
0.0
 20
0.0
 30
0.0
  9
$EXTMIN
 10
0.0
 20
0.0
 30
0.0
  9
$EXTMAX
 10
34.0
 20
22.0
 30
0.0
  9
$LIMMIN
 10
0.0
 20
0.0
  9
$LIMMAX
 10
12.0
 20
9.0
  9
$ORTHOMODE
 70
         0
  9
$REGENMODE
 70
         1
  9
$FILLMODE
 70
         1
  9
$QTEXTMODE
 70
         0
  9
$MIRRTEXT
 70
         1
  9
$DRAGMODE
 70
         2
  9
$LTSCALE
 40
1.0
  9
$OSMODE
 70
         0
  9
$ATTMODE
 70
         1
  9
$TEXTSIZE
 40
0.2
  9
$TRACEWID
 40
0.05
  9
$TEXTSTYLE
  7
STANDARD
  9
$CLAYER
  8
0
  9
$CELTYPE
  6
CONTINUOUS
  9
$CECOLOR
 62
       256
  9
$CELTSCALE
 40
1.0
  9
$DELOBJ
 70
         1
  9
$DISPSILH
 70
         0
  9
$DIMSCALE
 40
1.0
  9
$DIMASZ
 40
0.18
  9
$DIMEXO
 40
0.0625
  9
$DIMDLI
 40
0.38
  9
$DIMRND
 40
0.0
  9
$DIMDLE
 40
0.0
  9
$DIMEXE
 40
0.18
  9
$DIMTP
 40
0.0
  9
$DIMTM
 40
0.0
  9
$DIMTXT
 40
0.18
  9
$DIMCEN
 40
0.09
  9
$DIMTSZ
 40
0.0
  9
$DIMTOL
 70
         0
  9
$DIMLIM
 70
         0
  9
$DIMTIH
 70
         1
  9
$DIMTOH
 70
         1
  9
$DIMSE1
 70
         0
  9
$DIMSE2
 70
         0
  9
$DIMTAD
 70
         0
  9
$DIMZIN
 70
         0
  9
$DIMBLK
  1

  9
$DIMASO
 70
         1
  9
$DIMSHO
 70
         1
  9
$DIMPOST
  1

  9
$DIMAPOST
  1

  9
$DIMALT
 70
         0
  9
$DIMALTD
 70
         2
  9
$DIMALTF
 40
25.4
  9
$DIMLFAC
 40
1.0
  9
$DIMTOFL
 70
         0
  9
$DIMTVP
 40
0.0
  9
$DIMTIX
 70
         0
  9
$DIMSOXD
 70
         0
  9
$DIMSAH
 70
         0
  9
$DIMBLK1
  1

  9
$DIMBLK2
  1

  9
$DIMSTYLE
  2
STANDARD
  9
$DIMCLRD
 70
         0
  9
$DIMCLRE
 70
         0
  9
$DIMCLRT
 70
         0
  9
$DIMTFAC
 40
1.0
  9
$DIMGAP
 40
0.09
  9
$DIMJUST
 70
         0
  9
$DIMSD1
 70
         0
  9
$DIMSD2
 70
         0
  9
$DIMTOLJ
 70
         1
  9
$DIMTZIN
 70
         0
  9
$DIMALTZ
 70
         0
  9
$DIMALTTZ
 70
         0
  9
$DIMFIT
 70
         3
  9
$DIMUPT
 70
         0
  9
$DIMUNIT
 70
         2
  9
$DIMDEC
 70
         4
  9
$DIMTDEC
 70
         4
  9
$DIMALTU
 70
         2
  9
$DIMALTTD
 70
         2
  9
$DIMTXSTY
  7
STANDARD
  9
$DIMAUNIT
 70
         0
  9
$LUNITS
 70
         2
  9
$LUPREC
 70
         4
  9
$SKETCHINC
 40
0.1
  9
$FILLETRAD
 40
0.0
  9
$AUNITS
 70
         0
  9
$AUPREC
 70
         0
  9
$MENU
  1
acad
  9
$ELEVATION
 40
0.0
  9
$PELEVATION
 40
0.0
  9
$THICKNESS
 40
0.0
  9
$LIMCHECK
 70
         0
  9
$BLIPMODE
 70
         1
  9
$CHAMFERA
 40
0.0
  9
$CHAMFERB
 40
0.0
  9
$CHAMFERC
 40
0.0
  9
$CHAMFERD
 40
0.0
  9
$SKPOLY
 70
         0
  9
$TDCREATE
 40
0.000000000
  9
$TDUPDATE
 40
0.000000000
  9
$TDINDWG
 40
0.0000000000
  9
$TDUSRTIMER
 40
0.0000000000
  9
$USRTIMER
 70
         1
  9
$ANGBASE
 50
0.0
  9
$ANGDIR
 70
         0
  9
$PDMODE
 70
         0
  9
$PDSIZE
 40
0.0
  9
$PLINEWID
 40
0.0
  9
$COORDS
 70
         0
  9
$SPLFRAME
 70
         0
  9
$SPLINETYPE
 70
         6
  9
$SPLINESEGS
 70
         8
  9
$ATTDIA
 70
         0
  9
$ATTREQ
 70
         1
  9
$HANDLING
 70
         1
  9
$HANDSEED
  5
A3
  9
$SURFTAB1
 70
         6
  9
$SURFTAB2
 70
         6
  9
$SURFTYPE
 70
         6
  9
$SURFU
 70
         6
  9
$SURFV
 70
         6
  9
$UCSNAME
  2

  9
$UCSORG
 10
0.0
 20
0.0
 30
0.0
  9
$UCSXDIR
 10
1.0
 20
0.0
 30
0.0
  9
$UCSYDIR
 10
0.0
 20
1.0
 30
0.0
  9
$PUCSNAME
  2

  9
$PUCSORG
 10
0.0
 20
0.0
 30
0.0
  9
$PUCSXDIR
 10
1.0
 20
0.0
 30
0.0
  9
$PUCSYDIR
 10
0.0
 20
1.0
 30
0.0
  9
$USERI1
 70
         0
  9
$USERI2
 70
         0
  9
$USERI3
 70
         0
  9
$USERI4
 70
         0
  9
$USERI5
 70
         0
  9
$USERR1
 40
0.0
  9
$USERR2
 40
0.0
  9
$USERR3
 40
0.0
  9
$USERR4
 40
0.0
  9
$USERR5
 40
0.0
  9
$WORLDVIEW
 70
         1
  9
$SHADEDGE
 70
         3
  9
$SHADEDIF
 70
        70
  9
$TILEMODE
 70
         1
  9
$MAXACTVP
 70
        16
  9
$PINSBASE
 10
0.0
 20
0.0
 30
0.0
  9
$PLIMCHECK
 70
         0
  9
$PEXTMIN
 10
1.0000000000E+20
 20
1.0000000000E+20
 30
1.0000000000E+20
  9
$PEXTMAX
 10
-1.0000000000E+20
 20
-1.0000000000E+20
 30
-1.0000000000E+20
  9
$PLIMMIN
 10
0.0
 20
0.0
  9
$PLIMMAX
 10
12.0
 20
9.0
  9
$UNITMODE
 70
         0
  9
$VISRETAIN
 70
         0
  9
$PLINEGEN
 70
         1
  9
$PSLTSCALE
 70
         0
  9
$TREEDEPTH
 70
      3020
  9
$PICKSTYLE
 70
         1
  9
$CMLSTYLE
  2
STANDARD
  9
$CMLJUST
 70
         0
  9
$CMLSCALE
 40
1.0
  9
$SAVEIMAGES
 70
         0
  0
ENDSEC
  0
SECTION
  2
CLASSES
  0
CLASS
  1
LWPOLYLINE
  2
AcDbPolyline
  3
"AutoCAD"
 90
        0
280
         0
281
         1
  0
CLASS
  1
IMAGE
  2
AcDbRasterImage
  3
ISM
 90
      127
280
         0
281
         1
  0
CLASS
  1
OLE2FRAME
  2
AcDbOle2Frame
  3
""
 90
        0
280
         0
281
         1
  0
CLASS
  1
HATCH
  2
AcDbHatch
  3
"ACAD_SEDONA"
 90
        0
280
         0
281
         1
  0
CLASS
  1
DICTIONARYVAR
  2
AcDbDictionaryVar
  3
"AutoCAD"
 90
        0
280
         0
281
         0
  0
CLASS
  1
RASTERVARIABLES
  2
AcDbRasterVariables
  3
ISM
 90
        0
280
         0
281
         0
  0
CLASS
  1
IMAGEDEF
  2
AcDbRasterImageDef
  3
ISM
 90
        0
280
         0
281
         0
  0
CLASS
  1
IMAGEDEF_REACTOR
  2
AcDbRasterImageDefReactor
  3
ISM
 90
        1
280
         0
281
         0
  0
CLASS
  1
IDBUFFER
  2
AcDbIdBuffer
  3
"Acad"
 90
        0
280
         0
281
         0
  0
CLASS
  1
SPATIAL_FILTER
  2
AcDbSpatialFilter
  3
"Acad"
 90
        0
280
         0
281
         0
  0
CLASS
  1
XRECORD
  2
AcDbXrecord
  3
"<Built In>"
 90
        0
280
         0
281
         0
  0
CLASS
  1
SORTENTSTABLE
  2
AcDbSortentsTable
  3
"AutoCAD"
 90
        0
280
         0
281
         0
  0
CLASS
  1
LAYER_INDEX
  2
AcDbLayerIndex
  3
"Acad"
 90
        0
280
         0
281
         0
  0
CLASS
  1
SPATIAL_INDEX
  2
AcDbSpatialIndex
  3
"Acad"
 90
        0
280
         0
281
         0
  0
CLASS
  1
OBJECT_PTR
  2
CAseDLPNTableRecord
  3
"ASE-LPNTableRecord"
 90
        1
280
         0
281
         0
  0
CLASS
  1
LAYOUT
  2
AcDbLayout
  3
"AutoCAD 2000"
 90
        1
280
         0
281
         0
  0
CLASS
  1
PLOTSETTINGS
  2
AcDbPlotSettings
  3
"AutoCAD 2000"
 90
        1
280
         0
281
         0
  0
CLASS
  1
ACDBDICTIONARYWDFLT
  2
AcDbDictionaryWithDefault
  3
"AutoCAD 2000"
 90
        1
280
         0
281
         0
  0
CLASS
  1
ACDBPLACEHOLDER
  2
AcDbPlaceHolder
  3
"AutoCAD 2000"
 90
        1
280
         0
281
         0
  0
CLASS
  1
VBA_PROJECT
  2
AcDbVbaProject
  3
"acadvba"
 90
        1
280
         0
281
         0
  0
CLASS
  1
WIPEOUT
  2
AcDbWipeout
  3
WipeOut|AutoCAD Express Tool|expresstools@autodesk.com
 90
      127
280
         0
281
         1
  0
CLASS
  1
WIPEOUTVARIABLES
  2
AcDbWipeoutVariables
  3
WipeOut|AutoCAD Express Tool|expresstools@autodesk.com
 90
        0
280
         0
281
         0
  0
CLASS
  1
RTEXT
  2
RText
  3
RText|AutoCAD Express Tool|expresstools@autodesk.com
 90
        0
280
         0
281
         1
  0
CLASS
  1
ARCALIGNEDTEXT
  2
AcDbArcAlignedText
  3
ATEXT|AutoCAD Express Tool|expresstools@autodesk.com
 90
        0
280
         0
281
         1
  0
ENDSEC
  0
SECTION
  2
TABLES
  0
TABLE
  2
VPORT
  5
7
100
AcDbSymbolTable
 70
         1
  0
VPORT
  5
15
100
AcDbSymbolTableRecord
100
AcDbViewportTableRecord
  2
*ACTIVE
 70
         0
 10
0.0
 20
0.0
 11
1.0
 21
1.0
 12
17.0
 22
11.0
 13
0.0
 23
0.0
 14
1.0
 24
1.0
 15
0.0
 25
0.0
 16
0.0
 26
0.0
 36
1.0
 17
0.0
 27
0.0
 37
0.0
 40
22.0
 41
1.604229
 42
50.0
 43
0.0
 44
0.0
 50
0.0
 51
0.0
 71
         0
 72
       100
 73
         1
 74
         1
 75
         0
 76
         0
 77
         0
 78
         0
  0
ENDTAB
  0
TABLE
  2
LTYPE
  5
4
100
AcDbSymbolTable
 70
         7
  0
LTYPE
  5
11
100
AcDbSymbolTableRecord
100
AcDbLinetypeTableRecord
  2
BYBLOCK
 70
        64
  3

 72
        65
 73
         0
 40
0.0
  0
LTYPE
  5
12
100
AcDbSymbolTableRecord
100
AcDbLinetypeTableRecord
  2
BYLAYER
 70
        64
  3

 72
        65
 73
         0
 40
0.0
  0
LTYPE
  5
13
100
AcDbSymbolTableRecord
100
AcDbLinetypeTableRecord
  2
CONTINUOUS
 70
         0
  3
Solid line
 72
        65
 73
         0
 40
0.0
  0
LTYPE
  5
21
100
AcDbSymbolTableRecord
100
AcDbLinetypeTableRecord
  2
HIDDEN2
 70
        64
  3
_ _ _ _ _ _ _ _ _ _ _ _ _ _ _ _ _ _ _ _ _ _ _ _
 72
        65
 73
         2
 40
0.1875
 49
0.125
 74
         0
 49
-0.0625
 74
         0
  0
LTYPE
  5
22
100
AcDbSymbolTableRecord
100
AcDbLinetypeTableRecord
  2
CENTER2
 70
        64
  3
___ _ ___ _ ___ _ ___ _ ___ _ ___ _ ___ _ ___ _
 72
        65
 73
         4
 40
1.125
 49
0.75
 74
         0
 49
-0.125
 74
         0
 49
0.125
 74
         0
 49
-0.125
 74
         0
  0
LTYPE
  5
23
100
AcDbSymbolTableRecord
100
AcDbLinetypeTableRecord
  2
PHANTOM2
 70
        64
  3
___ _ _ ___ _ _ ___ _ _ ___ _ _ ___ _ _ ___ _ _
 72
        65
 73
         6
 40
1.25
 49
0.625
 74
         0
 49
-0.125
 74
         0
 49
0.125
 74
         0
 49
-0.125
 74
         0
 49
0.125
 74
         0
 49
-0.125
 74
         0
  0
LTYPE
  5
24
100
AcDbSymbolTableRecord
100
AcDbLinetypeTableRecord
  2
DOT2
 70
        64
  3
...............................................
 72
        65
 73
         2
 40
0.125
 49
0.0
 74
         0
 49
-0.125
 74
         0
  0
ENDTAB
  0
TABLE
  2
LAYER
  5
2
100
AcDbSymbolTable
 70
         6
  0
LAYER
  5
14
100
AcDbSymbolTableRecord
100
AcDbLayerTableRecord
  2
0
 70
         0
 62
         7
  6
CONTINUOUS
  0
LAYER
  5
26
100
AcDbSymbolTableRecord
100
AcDbLayerTableRecord
  2
DEFAULT
 70
         0
 62
         7
  6
CONTINUOUS
  0
LAYER
  5
28
100
AcDbSymbolTableRecord
100
AcDbLayerTableRecord
  2
54464X
 70
         0
 62
         7
  6
CONTINUOUS
  0
LAYER
  5
2A
100
AcDbSymbolTableRecord
100
AcDbLayerTableRecord
  2
54462X
 70
         0
 62
         7
  6
CONTINUOUS
  0
LAYER
  5
2C
100
AcDbSymbolTableRecord
100
AcDbLayerTableRecord
  2
54456X
 70
         0
 62
         7
  6
CONTINUOUS
  0
LAYER
  5
2E
100
AcDbSymbolTableRecord
100
AcDbLayerTableRecord
  2
54457X
 70
         0
 62
         7
  6
CONTINUOUS
  0
ENDTAB
  0
TABLE
  2
STYLE
  5
3
100
AcDbSymbolTable
 70
         2
  0
STYLE
  5
17
100
AcDbSymbolTableRecord
100
AcDbTextStyleTableRecord
  2
STANDARD
 70
         0
 40
0.0
 41
1.0
 50
0.0
 71
         0
 42
0.2
  3
txt
  4

  0
STYLE
  5
2F
100
AcDbSymbolTableRecord
100
AcDbTextStyleTableRecord
  2
ARIAL_TTF
 70
         0
 40
0.0
 41
1.0
 50
0.0
 71
         0
 42
0.2
  3
arial.ttf
  4

1001
ACAD
1000
Arial
1071
        2
  0
ENDTAB
  0
TABLE
  2
VIEW
  5
5
100
AcDbSymbolTable
 70
         0
  0
ENDTAB
  0
TABLE
  2
UCS
  5
6
100
AcDbSymbolTable
 70
         0
  0
ENDTAB
  0
TABLE
  2
APPID
  5
8
100
AcDbSymbolTable
 70
         1
  0
APPID
  5
16
100
AcDbSymbolTableRecord
100
AcDbRegAppTableRecord
  2
ACAD
 70
         0
  0
ENDTAB
  0
TABLE
  2
DIMSTYLE
  5
9
100
AcDbSymbolTable
 70
         1
  0
DIMSTYLE
105
18
100
AcDbSymbolTableRecord
100
AcDbDimStyleTableRecord
  2
STANDARD
 70
         0
  3

  4

  5

  6

  7

 40
1.0
 41
0.18
 42
0.0625
 43
0.38
 44
0.18
 45
0.0
 46
0.0
 47
0.0
 48
0.0
 71
         0
 72
         0
 73
         1
 74
         1
 75
         0
 76
         0
 77
         0
 78
         0
140
0.18
141
0.09
142
0.0
143
25.4
144
1.0
145
0.0
146
1.0
147
0.09
170
         0
171
         2
172
         0
173
         0
174
         0
175
         0
176
         0
177
         0
178
         0
270
         2
271
         4
272
         4
273
         2
274
         2
275
         0
280
         0
281
         0
282
         0
283
         1
284
         0
285
         0
286
         0
287
         0
288
         0
340
17
  0
ENDTAB
  0
TABLE
  2
BLOCK_RECORD
  5
1
100
AcDbSymbolTable
 70
         0
  0
BLOCK_RECORD
  5
A
100
AcDbSymbolTableRecord
100
AcDbBlockTableRecord
  2
*MODEL_SPACE
  0
BLOCK_RECORD
  5
B
100
AcDbSymbolTableRecord
100
AcDbBlockTableRecord
  2
*PAPER_SPACE
  0
ENDTAB
  0
ENDSEC
  0
SECTION
  2
BLOCKS
  0
BLOCK
  5
D
100
AcDbEntity
  8
0
100
AcDbBlockBegin
  2
*MODEL_SPACE
 70
         0
 10
0.0
 20
0.0
 30
0.0
  3
*MODEL_SPACE
  1

  0
ENDBLK
  5
E
100
AcDbEntity
  8
0
100
AcDbBlockEnd
  0
BLOCK
  5
F
100
AcDbEntity
 67
         1
  8
0
100
AcDbBlockBegin
  2
*PAPER_SPACE
 70
         0
 10
0.0
 20
0.0
 30
0.0
  3
*PAPER_SPACE
  1

  0
ENDBLK
  5
10
100
AcDbEntity
 67
         1
  8
0
100
AcDbBlockEnd
  0
ENDSEC
  0
SECTION
  2
ENTITIES
  0
ARC
  5
30
100
AcDbEntity
  8
54456X
  6
CONTINUOUS
 62
         7
100
AcDbCircle
 10
18.2112221265
 20
14.0297630312
 30
0.0
 40
1.1381051178
100
AcDbArc
 50
357.6394978523
 51
2.3605021477
  0
ARC
  5
31
100
AcDbEntity
  8
54456X
  6
CONTINUOUS
 62
         7
100
AcDbCircle
 10
18.2112221265
 20
14.0297630312
 30
0.0
 40
1.1155884573
100
AcDbArc
 50
2.4081735222
 51
177.5918264778
  0
LINE
  5
32
100
AcDbEntity
  8
54456X
  6
CONTINUOUS
 62
         7
100
AcDbLine
 10
19.50478464
 20
13.9828880312
 30
0.0
 11
19.3258253476
 21
13.9828880312
 31
0.0
  0
LINE
  5
33
100
AcDbEntity
  8
54456X
  6
CONTINUOUS
 62
         7
100
AcDbLine
 10
19.50478464
 20
14.0766380312
 30
0.0
 11
19.3258253476
 21
14.0766380312
 31
0.0
  0
ARC
  5
34
100
AcDbEntity
  8
54456X
  6
CONTINUOUS
 62
         7
100
AcDbCircle
 10
18.2112221265
 20
14.0297630312
 30
0.0
 40
1.2944115427
100
AcDbArc
 50
182.0753268488
 51
357.9246731512
  0
LINE
  5
35
100
AcDbEntity
  8
54456X
  6
CONTINUOUS
 62
         7
100
AcDbLine
 10
19.5203832069
 20
13.9828880312
 30
0.0
 11
19.5051787345
 21
13.9828880312
 31
0.0
  0
ARC
  5
36
100
AcDbEntity
  8
54456X
  6
CONTINUOUS
 62
         7
100
AcDbCircle
 10
18.2112221265
 20
14.0297630312
 30
0.0
 40
1.2944115427
100
AcDbArc
 50
2.0753268488
 51
177.9246731512
  0
LINE
  5
37
100
AcDbEntity
  8
54456X
  6
CONTINUOUS
 62
         7
100
AcDbLine
 10
16.917659613
 20
13.9828880312
 30
0.0
 11
17.0966189055
 21
13.9828880312
 31
0.0
  0
ARC
  5
38
100
AcDbEntity
  8
54456X
  6
CONTINUOUS
 62
         7
100
AcDbCircle
 10
18.2112221265
 20
14.0297630312
 30
0.0
 40
1.1381051178
100
AcDbArc
 50
177.6394978523
 51
182.3605021477
  0
ARC
  5
39
100
AcDbEntity
  8
54456X
  6
CONTINUOUS
 62
         7
100
AcDbCircle
 10
18.2112221265
 20
14.0297630312
 30
0.0
 40
1.2718948822
100
AcDbArc
 50
177.887916636
 51
182.112083364
  0
LINE
  5
3A
100
AcDbEntity
  8
54456X
  6
CONTINUOUS
 62
         7
100
AcDbLine
 10
16.917659613
 20
14.0766380312
 30
0.0
 11
17.0966189055
 21
14.0766380312
 31
0.0
  0
ARC
  5
3B
100
AcDbEntity
  8
54456X
  6
CONTINUOUS
 62
         7
100
AcDbCircle
 10
18.2112221265
 20
14.0297630312
 30
0.0
 40
1.1155884573
100
AcDbArc
 50
182.4081735222
 51
357.5918264778
  0
ARC
  5
3C
100
AcDbEntity
  8
54456X
  6
CONTINUOUS
 62
         7
100
AcDbCircle
 10
18.2112221265
 20
14.0297630312
 30
0.0
 40
1.31
100
AcDbArc
 50
0.0
 51
2.0506207057
  0
ARC
  5
3D
100
AcDbEntity
  8
54456X
  6
CONTINUOUS
 62
         7
100
AcDbCircle
 10
18.2112221265
 20
14.0297630312
 30
0.0
 40
1.31
100
AcDbArc
 50
177.9493792943
 51
182.0506207057
  0
ARC
  5
3E
100
AcDbEntity
  8
54456X
  6
CONTINUOUS
 62
         7
100
AcDbCircle
 10
18.2112221265
 20
14.0297630312
 30
0.0
 40
1.31
100
AcDbArc
 50
357.9493792943
 51
360.0
  0
ARC
  5
3F
100
AcDbEntity
  8
54456X
  6
CONTINUOUS
 62
         7
100
AcDbCircle
 10
18.2112221265
 20
14.0297630312
 30
0.0
 40
1.31
100
AcDbArc
 50
182.0506207057
 51
357.9493792943
  0
LINE
  5
40
100
AcDbEntity
  8
54456X
  6
CONTINUOUS
 62
         7
100
AcDbLine
 10
16.9172655185
 20
14.0766380312
 30
0.0
 11
16.9020610461
 21
14.0766380312
 31
0.0
  0
LINE
  5
41
100
AcDbEntity
  8
54456X
  6
CONTINUOUS
 62
         7
100
AcDbLine
 10
19.5051787345
 20
14.0766380312
 30
0.0
 11
19.5203832069
 21
14.0766380312
 31
0.0
  0
ARC
  5
42
100
AcDbEntity
  8
54456X
  6
CONTINUOUS
 62
         7
100
AcDbCircle
 10
18.2112221265
 20
14.0297630312
 30
0.0
 40
1.31
100
AcDbArc
 50
2.0506207057
 51
177.9493792943
  0
LINE
  5
43
100
AcDbEntity
  8
54456X
  6
CONTINUOUS
 62
         7
100
AcDbLine
 10
16.9020610461
 20
13.9828880312
 30
0.0
 11
16.9172655185
 21
13.9828880312
 31
0.0
  0
ARC
  5
44
100
AcDbEntity
  8
54456X
  6
CONTINUOUS
 62
         7
100
AcDbCircle
 10
18.2112221265
 20
14.0297630312
 30
0.0
 40
1.2718948822
100
AcDbArc
 50
357.887916636
 51
2.112083364
  0
ARC
  5
45
100
AcDbEntity
  8
54457X
  6
CONTINUOUS
 62
         7
100
AcDbCircle
 10
18.2112221265
 20
14.0297630312
 30
0.0
 40
1.1333012702
100
AcDbArc
 50
0.0
 51
2.3712614382
  0
ARC
  5
46
100
AcDbEntity
  8
54457X
  6
CONTINUOUS
 62
         7
100
AcDbCircle
 10
18.2112221265
 20
14.0297630312
 30
0.0
 40
1.1333012702
100
AcDbArc
 50
177.6294864338
 51
182.3711130975
  0
ARC
  5
47
100
AcDbEntity
  8
54457X
  6
CONTINUOUS
 62
         7
100
AcDbCircle
 10
18.2112221265
 20
14.0297630312
 30
0.0
 40
1.1333012702
100
AcDbArc
 50
357.6294864338
 51
360.0
  0
CIRCLE
  5
48
100
AcDbEntity
  8
54457X
  6
CONTINUOUS
 62
         7
100
AcDbCircle
 10
18.2112221265
 20
14.0297630312
 30
0.0
 40
1.1055057606
  0
LINE
  5
49
100
AcDbEntity
  8
54457X
  6
CONTINUOUS
 62
         7
100
AcDbLine
 10
18.1643471265
 20
13.5297630312
 30
0.0
 11
18.2580971265
 21
13.5297630312
 31
0.0
  0
LINE
  5
4A
100
AcDbEntity
  8
54457X
  6
CONTINUOUS
 62
         7
100
AcDbLine
 10
18.2580971265
 20
13.5297630312
 30
0.0
 11
18.2580971265
 21
14.5297630312
 31
0.0
  0
LINE
  5
4B
100
AcDbEntity
  8
54457X
  6
CONTINUOUS
 62
         7
100
AcDbLine
 10
18.1643471265
 20
13.5297630312
 30
0.0
 11
18.1643471265
 21
14.5297630312
 31
0.0
  0
LINE
  5
4C
100
AcDbEntity
  8
54457X
  6
CONTINUOUS
 62
         7
100
AcDbLine
 10
18.1643471265
 20
14.5297630312
 30
0.0
 11
18.2580971265
 21
14.5297630312
 31
0.0
  0
LINE
  5
4D
100
AcDbEntity
  8
0
  6
CONTINUOUS
 62
       136
100
AcDbLine
 10
17.5012703873
 20
15.1307028697
 30
0.0
 11
17.2346780027
 21
15.5441143182
 31
0.0
  0
POLYLINE
  5
4E
100
AcDbEntity
  8
0
  6
CONTINUOUS
 62
       136
100
AcDb2dPolyline
 66
         1
 10
0.0
 20
0.0
 30
0.0
  0
VERTEX
  5
4F
100
AcDbEntity
  8
0
  6
CONTINUOUS
 62
       136
100
AcDbVertex
100
AcDb2dVertex
 10
17.4160183165
 20
15.2244637988
 30
0.0
  0
VERTEX
  5
50
100
AcDbEntity
  8
0
  6
CONTINUOUS
 62
       136
100
AcDbVertex
100
AcDb2dVertex
 10
17.5012703873
 20
15.1307028697
 30
0.0
  0
VERTEX
  5
51
100
AcDbEntity
  8
0
  6
CONTINUOUS
 62
       136
100
AcDbVertex
100
AcDb2dVertex
 10
17.4510354866
 20
15.2470449607
 30
0.0
  0
VERTEX
  5
52
100
AcDbEntity
  8
0
  6
CONTINUOUS
 62
       136
100
AcDbVertex
100
AcDb2dVertex
 10
17.4160183165
 20
15.2244637988
 30
0.0
  0
SEQEND
  5
53
100
AcDbEntity
  8
0
  6
CONTINUOUS
 62
       136
  0
LINE
  5
54
100
AcDbEntity
  8
0
  6
CONTINUOUS
 62
       136
100
AcDbLine
 10
17.2346780116
 20
15.5441143043
 30
0.0
 11
16.859678007
 21
15.5441143043
 31
0.0
  0
TEXT
  5
55
100
AcDbEntity
  8
0
  6
CONTINUOUS
 62
       136
100
AcDbText
 10
16.1267975722
 20
15.4816143043
 30
0.0
 40
0.125
  1
R
  7
ARIAL_TTF
 11
16.1267975722
 21
15.6066143043
 31
0.0
100
AcDbText
 73
         3
  0
TEXT
  5
56
100
AcDbEntity
  8
0
  6
CONTINUOUS
 62
       136
100
AcDbText
 10
16.3267975722
 20
15.4816143043
 30
0.0
 40
0.125
  1
1 5/16
  7
ARIAL_TTF
 11
16.3267975722
 21
15.6066143043
 31
0.0
100
AcDbText
 73
         3
  0
LINE
  5
57
100
AcDbEntity
  8
0
  6
CONTINUOUS
 62
       136
100
AcDbLine
 10
17.389847511
 20
14.7846678907
 30
0.0
 11
16.9870035254
 21
15.1549117193
 31
0.0
  0
POLYLINE
  5
58
100
AcDbEntity
  8
0
  6
CONTINUOUS
 62
       136
100
AcDb2dPolyline
 66
         1
 10
0.0
 20
0.0
 30
0.0
  0
VERTEX
  5
59
100
AcDbEntity
  8
0
  6
CONTINUOUS
 62
       136
100
AcDbVertex
100
AcDb2dVertex
 10
17.2837160704
 20
14.8539148741
 30
0.0
  0
VERTEX
  5
5A
100
AcDbEntity
  8
0
  6
CONTINUOUS
 62
       136
100
AcDbVertex
100
AcDb2dVertex
 10
17.389847511
 20
14.7846678907
 30
0.0
  0
VERTEX
  5
5B
100
AcDbEntity
  8
0
  6
CONTINUOUS
 62
       136
100
AcDbVertex
100
AcDb2dVertex
 10
17.3119113861
 20
14.8845928017
 30
0.0
  0
VERTEX
  5
5C
100
AcDbEntity
  8
0
  6
CONTINUOUS
 62
       136
100
AcDbVertex
100
AcDb2dVertex
 10
17.2837160704
 20
14.8539148741
 30
0.0
  0
SEQEND
  5
5D
100
AcDbEntity
  8
0
  6
CONTINUOUS
 62
       136
  0
LINE
  5
5E
100
AcDbEntity
  8
0
  6
CONTINUOUS
 62
       136
100
AcDbLine
 10
16.9870035043
 20
15.1549117387
 30
0.0
 11
16.6120034997
 21
15.1549117387
 31
0.0
  0
TEXT
  5
5F
100
AcDbEntity
  8
0
  6
CONTINUOUS
 62
       136
100
AcDbText
 10
15.9769491518
 20
15.0924117387
 30
0.0
 40
0.125
  1
R
  7
ARIAL_TTF
 11
15.9769491518
 21
15.2174117387
 31
0.0
100
AcDbText
 73
         3
  0
TEXT
  5
60
100
AcDbEntity
  8
0
  6
CONTINUOUS
 62
       136
100
AcDbText
 10
16.1769491518
 20
15.0924117387
 30
0.0
 40
0.125
  1
1 1/8
  7
ARIAL_TTF
 11
16.1769491518
 21
15.2174117387
 31
0.0
100
AcDbText
 73
         3
  0
LINE
  5
61
100
AcDbEntity
  8
54464X
  6
CONTINUOUS
 62
         7
100
AcDbLine
 10
16.9299721265
 20
10.4790966516
 30
0.0
 11
19.4924721265
 21
10.4790966516
 31
0.0
  0
LINE
  5
62
100
AcDbEntity
  8
54464X
  6
CONTINUOUS
 62
         7
100
AcDbLine
 10
16.9299721265
 20
10.4090966516
 30
0.0
 11
19.4924721265
 21
10.4090966516
 31
0.0
  0
LINE
  5
63
100
AcDbEntity
  8
54464X
  6
CONTINUOUS
 62
         7
100
AcDbLine
 10
16.9299721265
 20
10.4790966516
 30
0.0
 11
16.9299721265
 21
10.4090966516
 31
0.0
  0
LINE
  5
64
100
AcDbEntity
  8
54464X
  6
CONTINUOUS
 62
         7
100
AcDbLine
 10
19.4924721265
 20
10.4090966516
 30
0.0
 11
19.4924721265
 21
10.4790966516
 31
0.0
  0
LINE
  5
65
100
AcDbEntity
  8
54462X
  6
CONTINUOUS
 62
         7
100
AcDbLine
 10
16.9299721265
 20
10.4790966516
 30
0.0
 11
19.4924721265
 21
10.4790966516
 31
0.0
  0
LINE
  5
66
100
AcDbEntity
  8
54462X
  6
CONTINUOUS
 62
         7
100
AcDbLine
 10
16.9299721265
 20
10.5420966516
 30
0.0
 11
16.9299721265
 21
10.4790966516
 31
0.0
  0
LINE
  5
67
100
AcDbEntity
  8
54462X
  6
CONTINUOUS
 62
         7
100
AcDbLine
 10
19.4924721265
 20
10.4790966516
 30
0.0
 11
19.4924721265
 21
10.5420966516
 31
0.0
  0
LINE
  5
68
100
AcDbEntity
  8
54456X
  6
CONTINUOUS
 62
         7
100
AcDbLine
 10
19.4770532395
 20
10.6670966516
 30
0.0
 11
19.50478464
 21
10.6830966516
 31
0.0
  0
LINE
  5
69
100
AcDbEntity
  8
54456X
  6
CONTINUOUS
 62
         7
100
AcDbLine
 10
16.917659613
 20
10.6830966516
 30
0.0
 11
19.50478464
 21
10.6830966516
 31
0.0
  0
LINE
  5
6A
100
AcDbEntity
  8
54456X
  6
CONTINUOUS
 62
         7
100
AcDbLine
 10
16.9445233967
 20
10.5670966516
 30
0.0
 11
16.9012221265
 21
10.5420966516
 31
0.0
  0
LINE
  5
6B
100
AcDbEntity
  8
54456X
  6
CONTINUOUS
 62
         7
100
AcDbLine
 10
16.9445233967
 20
10.6170966516
 30
0.0
 11
16.9012221265
 21
10.5920966516
 31
0.0
  0
LINE
  5
6C
100
AcDbEntity
  8
54456X
  6
CONTINUOUS
 62
         7
100
AcDbLine
 10
19.5203832069
 20
10.6420966516
 30
0.0
 11
19.4770532395
 21
10.6670966516
 31
0.0
  0
LINE
  5
6D
100
AcDbEntity
  8
54456X
  6
CONTINUOUS
 62
         7
100
AcDbLine
 10
16.9453910136
 20
10.6670966516
 30
0.0
 11
19.4770532395
 21
10.6670966516
 31
0.0
  0
LINE
  5
6E
100
AcDbEntity
  8
54456X
  6
CONTINUOUS
 62
         7
100
AcDbLine
 10
19.4779208563
 20
10.5670966516
 30
0.0
 11
19.5212221265
 21
10.5920966516
 31
0.0
  0
LINE
  5
6F
100
AcDbEntity
  8
54456X
  6
CONTINUOUS
 62
         7
100
AcDbLine
 10
16.9401913142
 20
10.6200966516
 30
0.0
 11
16.9393272443
 21
10.6200966516
 31
0.0
  0
LINE
  5
70
100
AcDbEntity
  8
54456X
  6
CONTINUOUS
 62
         7
100
AcDbLine
 10
16.9445233967
 20
10.6170966516
 30
0.0
 11
19.4779208563
 21
10.6170966516
 31
0.0
  0
LINE
  5
71
100
AcDbEntity
  8
54456X
  6
CONTINUOUS
 62
         7
100
AcDbLine
 10
16.9012221265
 20
10.5420966516
 30
0.0
 11
19.5212221265
 21
10.5420966516
 31
0.0
  0
LINE
  5
72
100
AcDbEntity
  8
54456X
  6
CONTINUOUS
 62
         7
100
AcDbLine
 10
16.9445233967
 20
10.5670966516
 30
0.0
 11
19.4779208563
 21
10.5670966516
 31
0.0
  0
LINE
  5
73
100
AcDbEntity
  8
54456X
  6
CONTINUOUS
 62
         7
100
AcDbLine
 10
16.9012221265
 20
10.5920966516
 30
0.0
 11
19.5212221265
 21
10.5920966516
 31
0.0
  0
LINE
  5
74
100
AcDbEntity
  8
54456X
  6
CONTINUOUS
 62
         7
100
AcDbLine
 10
16.9020610461
 20
10.6420966516
 30
0.0
 11
19.5203832069
 21
10.6420966516
 31
0.0
  0
LINE
  5
75
100
AcDbEntity
  8
54456X
  6
CONTINUOUS
 62
         7
100
AcDbLine
 10
16.9453910136
 20
10.6670966516
 30
0.0
 11
16.917659613
 21
10.6830966516
 31
0.0
  0
LINE
  5
76
100
AcDbEntity
  8
54456X
  6
CONTINUOUS
 62
         7
100
AcDbLine
 10
16.9401913142
 20
10.6200966516
 30
0.0
 11
16.9020610461
 21
10.6420966516
 31
0.0
  0
LINE
  5
77
100
AcDbEntity
  8
54456X
  6
CONTINUOUS
 62
         7
100
AcDbLine
 10
16.9020610461
 20
10.6420966516
 30
0.0
 11
16.9453910136
 21
10.6670966516
 31
0.0
  0
LINE
  5
78
100
AcDbEntity
  8
54456X
  6
CONTINUOUS
 62
         7
100
AcDbLine
 10
19.4822529388
 20
10.6200966516
 30
0.0
 11
19.5203832069
 21
10.6420966516
 31
0.0
  0
LINE
  5
79
100
AcDbEntity
  8
54456X
  6
CONTINUOUS
 62
         7
100
AcDbLine
 10
19.4822529388
 20
10.6200966516
 30
0.0
 11
19.4831170088
 21
10.6200966516
 31
0.0
  0
LINE
  5
7A
100
AcDbEntity
  8
54456X
  6
CONTINUOUS
 62
         7
100
AcDbLine
 10
16.9393272443
 20
10.6200966516
 30
0.0
 11
16.9445233967
 21
10.6170966516
 31
0.0
  0
LINE
  5
7B
100
AcDbEntity
  8
54456X
  6
CONTINUOUS
 62
         7
100
AcDbLine
 10
19.5212221265
 20
10.5420966516
 30
0.0
 11
19.4779208563
 21
10.5670966516
 31
0.0
  0
LINE
  5
7C
100
AcDbEntity
  8
54456X
  6
CONTINUOUS
 62
         7
100
AcDbLine
 10
19.5212221265
 20
10.5920966516
 30
0.0
 11
19.4779208563
 21
10.6170966516
 31
0.0
  0
LINE
  5
7D
100
AcDbEntity
  8
54456X
  6
CONTINUOUS
 62
         7
100
AcDbLine
 10
16.9012221265
 20
10.5920966516
 30
0.0
 11
16.9445233967
 21
10.5670966516
 31
0.0
  0
LINE
  5
7E
100
AcDbEntity
  8
54456X
  6
CONTINUOUS
 62
         7
100
AcDbLine
 10
19.4779208563
 20
10.6170966516
 30
0.0
 11
19.4831170088
 21
10.6200966516
 31
0.0
  0
POLYLINE
  5
7F
100
AcDbEntity
  8
0
  6
CONTINUOUS
 62
       136
100
AcDb2dPolyline
 66
         1
 10
0.0
 20
0.0
 30
0.0
  0
VERTEX
  5
80
100
AcDbEntity
  8
0
  6
CONTINUOUS
 62
       136
100
AcDbVertex
100
AcDb2dVertex
 10
19.9710672736
 20
10.8080966501
 30
0.0
  0
VERTEX
  5
81
100
AcDbEntity
  8
0
  6
CONTINUOUS
 62
       136
100
AcDbVertex
100
AcDb2dVertex
 10
19.9502339405
 20
10.6830966516
 30
0.0
  0
VERTEX
  5
82
100
AcDbEntity
  8
0
  6
CONTINUOUS
 62
       136
100
AcDbVertex
100
AcDb2dVertex
 10
19.9294006074
 20
10.8080966501
 30
0.0
  0
VERTEX
  5
83
100
AcDbEntity
  8
0
  6
CONTINUOUS
 62
       136
100
AcDbVertex
100
AcDb2dVertex
 10
19.9710672736
 20
10.8080966501
 30
0.0
  0
SEQEND
  5
84
100
AcDbEntity
  8
0
  6
CONTINUOUS
 62
       136
  0
POLYLINE
  5
85
100
AcDbEntity
  8
0
  6
CONTINUOUS
 62
       136
100
AcDb2dPolyline
 66
         1
 10
0.0
 20
0.0
 30
0.0
  0
VERTEX
  5
86
100
AcDbEntity
  8
0
  6
CONTINUOUS
 62
       136
100
AcDbVertex
100
AcDb2dVertex
 10
19.9710672736
 20
10.2840966532
 30
0.0
  0
VERTEX
  5
87
100
AcDbEntity
  8
0
  6
CONTINUOUS
 62
       136
100
AcDbVertex
100
AcDb2dVertex
 10
19.9502339405
 20
10.4090966516
 30
0.0
  0
VERTEX
  5
88
100
AcDbEntity
  8
0
  6
CONTINUOUS
 62
       136
100
AcDbVertex
100
AcDb2dVertex
 10
19.9294006074
 20
10.2840966532
 30
0.0
  0
VERTEX
  5
89
100
AcDbEntity
  8
0
  6
CONTINUOUS
 62
       136
100
AcDbVertex
100
AcDb2dVertex
 10
19.9710672736
 20
10.2840966532
 30
0.0
  0
SEQEND
  5
8A
100
AcDbEntity
  8
0
  6
CONTINUOUS
 62
       136
  0
LINE
  5
8B
100
AcDbEntity
  8
0
  6
CONTINUOUS
 62
       136
100
AcDbLine
 10
19.5672846577
 20
10.6830966516
 30
0.0
 11
20.0127339397
 21
10.6830966516
 31
0.0
  0
LINE
  5
8C
100
AcDbEntity
  8
0
  6
CONTINUOUS
 62
       136
100
AcDbLine
 10
19.5549721223
 20
10.4090966516
 30
0.0
 11
20.0127339397
 21
10.4090966516
 31
0.0
  0
LINE
  5
8D
100
AcDbEntity
  8
0
  6
CONTINUOUS
 62
       136
100
AcDbLine
 10
19.9502339405
 20
10.9330966486
 30
0.0
 11
19.9502339405
 21
10.6830966516
 31
0.0
  0
LINE
  5
8E
100
AcDbEntity
  8
0
  6
CONTINUOUS
 62
       136
100
AcDbLine
 10
19.9502339405
 20
10.4090966516
 30
0.0
 11
19.9502339405
 21
10.1590966547
 31
0.0
  0
TEXT
  5
8F
100
AcDbEntity
  8
0
  6
CONTINUOUS
 62
       136
100
AcDbText
 10
19.8279513318
 20
10.4835966534
 30
0.0
 40
0.125
  1
1/4
  7
ARIAL_TTF
 11
19.8279513318
 21
10.6085966534
 31
0.0
100
AcDbText
 73
         3
  0
POLYLINE
  5
90
100
AcDbEntity
  8
0
  6
CONTINUOUS
 62
       136
100
AcDb2dPolyline
 66
         1
 10
0.0
 20
0.0
 30
0.0
  0
VERTEX
  5
91
100
AcDbEntity
  8
0
  6
CONTINUOUS
 62
       136
100
AcDbVertex
100
AcDb2dVertex
 10
19.367472128
 20
10.1473848922
 30
0.0
  0
VERTEX
  5
92
100
AcDbEntity
  8
0
  6
CONTINUOUS
 62
       136
100
AcDbVertex
100
AcDb2dVertex
 10
19.4924721265
 20
10.1682182253
 30
0.0
  0
VERTEX
  5
93
100
AcDbEntity
  8
0
  6
CONTINUOUS
 62
       136
100
AcDbVertex
100
AcDb2dVertex
 10
19.367472128
 20
10.1890515584
 30
0.0
  0
VERTEX
  5
94
100
AcDbEntity
  8
0
  6
CONTINUOUS
 62
       136
100
AcDbVertex
100
AcDb2dVertex
 10
19.367472128
 20
10.1473848922
 30
0.0
  0
SEQEND
  5
95
100
AcDbEntity
  8
0
  6
CONTINUOUS
 62
       136
  0
POLYLINE
  5
96
100
AcDbEntity
  8
0
  6
CONTINUOUS
 62
       136
100
AcDb2dPolyline
 66
         1
 10
0.0
 20
0.0
 30
0.0
  0
VERTEX
  5
97
100
AcDbEntity
  8
0
  6
CONTINUOUS
 62
       136
100
AcDbVertex
100
AcDb2dVertex
 10
17.054972125
 20
10.1473848922
 30
0.0
  0
VERTEX
  5
98
100
AcDbEntity
  8
0
  6
CONTINUOUS
 62
       136
100
AcDbVertex
100
AcDb2dVertex
 10
16.9299721265
 20
10.1682182253
 30
0.0
  0
VERTEX
  5
99
100
AcDbEntity
  8
0
  6
CONTINUOUS
 62
       136
100
AcDbVertex
100
AcDb2dVertex
 10
17.054972125
 20
10.1890515584
 30
0.0
  0
VERTEX
  5
9A
100
AcDbEntity
  8
0
  6
CONTINUOUS
 62
       136
100
AcDbVertex
100
AcDb2dVertex
 10
17.054972125
 20
10.1473848922
 30
0.0
  0
SEQEND
  5
9B
100
AcDbEntity
  8
0
  6
CONTINUOUS
 62
       136
  0
LINE
  5
9C
100
AcDbEntity
  8
0
  6
CONTINUOUS
 62
       136
100
AcDbLine
 10
19.4924721265
 20
10.3815966524
 30
0.0
 11
19.4924721265
 21
10.105718226
 31
0.0
  0
LINE
  5
9D
100
AcDbEntity
  8
0
  6
CONTINUOUS
 62
       136
100
AcDbLine
 10
16.9299721265
 20
10.3815966524
 30
0.0
 11
16.9299721265
 21
10.105718226
 31
0.0
  0
LINE
  5
9E
100
AcDbEntity
  8
0
  6
CONTINUOUS
 62
       136
100
AcDbLine
 10
19.4924721265
 20
10.1682182253
 30
0.0
 11
18.4995374303
 21
10.1682182253
 31
0.0
  0
LINE
  5
9F
100
AcDbEntity
  8
0
  6
CONTINUOUS
 62
       136
100
AcDbLine
 10
17.9229069694
 20
10.1682182253
 30
0.0
 11
16.9299721265
 21
10.1682182253
 31
0.0
  0
TEXT
  5
A0
100
AcDbEntity
  8
0
  6
CONTINUOUS
 62
       136
100
AcDbText
 10
17.9666569636
 20
10.1057182253
 30
0.0
 40
0.125
  1
2 9/16
  7
ARIAL_TTF
 11
17.9666569636
 21
10.2307182253
 31
0.0
100
AcDbText
 73
         3
  0
ENDSEC
  0
SECTION
  2
OBJECTS
  0
DICTIONARY
  5
19
100
AcDbDictionary
  3
ACAD_GROUP
350
1A
  3
ACAD_MLINESTYLE
350
1B
  0
DICTIONARY
  5
1A
102
{ACAD_REACTORS
330
19
102
}
100
AcDbDictionary
  0
DICTIONARY
  5
1B
102
{ACAD_REACTORS
330
19
102
}
100
AcDbDictionary
  3
STANDARD
350
1C
  0
MLINESTYLE
  5
1C
102
{ACAD_REACTORS
330
1B
102
}
100
AcDbMlineStyle
  2
STANDARD
 70
         0
  3

 62
         0
 51
90.0
 52
90.0
 71
         2
 49
0.5
 62
       256
  6
BYLAYER
 49
-0.5
 62
       256
  6
BYLAYER
  0
ENDSEC
  0
EOF
