  0
SECTION
  2
HEADER
  9
$ACADVER
  1
AC1012
  9
$DWGCODEPAGE
  3
ansi_1252
  9
$INSBASE
 10
0.0
 20
0.0
 30
0.0
  9
$EXTMIN
 10
0.0
 20
0.0
 30
0.0
  9
$EXTMAX
 10
34.0
 20
22.0
 30
0.0
  9
$LIMMIN
 10
0.0
 20
0.0
  9
$LIMMAX
 10
12.0
 20
9.0
  9
$ORTHOMODE
 70
         0
  9
$REGENMODE
 70
         1
  9
$FILLMODE
 70
         1
  9
$QTEXTMODE
 70
         0
  9
$MIRRTEXT
 70
         1
  9
$DRAGMODE
 70
         2
  9
$LTSCALE
 40
1.0
  9
$OSMODE
 70
         0
  9
$ATTMODE
 70
         1
  9
$TEXTSIZE
 40
0.2
  9
$TRACEWID
 40
0.05
  9
$TEXTSTYLE
  7
STANDARD
  9
$CLAYER
  8
0
  9
$CELTYPE
  6
CONTINUOUS
  9
$CECOLOR
 62
       256
  9
$CELTSCALE
 40
1.0
  9
$DELOBJ
 70
         1
  9
$DISPSILH
 70
         0
  9
$DIMSCALE
 40
1.0
  9
$DIMASZ
 40
0.18
  9
$DIMEXO
 40
0.0625
  9
$DIMDLI
 40
0.38
  9
$DIMRND
 40
0.0
  9
$DIMDLE
 40
0.0
  9
$DIMEXE
 40
0.18
  9
$DIMTP
 40
0.0
  9
$DIMTM
 40
0.0
  9
$DIMTXT
 40
0.18
  9
$DIMCEN
 40
0.09
  9
$DIMTSZ
 40
0.0
  9
$DIMTOL
 70
         0
  9
$DIMLIM
 70
         0
  9
$DIMTIH
 70
         1
  9
$DIMTOH
 70
         1
  9
$DIMSE1
 70
         0
  9
$DIMSE2
 70
         0
  9
$DIMTAD
 70
         0
  9
$DIMZIN
 70
         0
  9
$DIMBLK
  1

  9
$DIMASO
 70
         1
  9
$DIMSHO
 70
         1
  9
$DIMPOST
  1

  9
$DIMAPOST
  1

  9
$DIMALT
 70
         0
  9
$DIMALTD
 70
         2
  9
$DIMALTF
 40
25.4
  9
$DIMLFAC
 40
1.0
  9
$DIMTOFL
 70
         0
  9
$DIMTVP
 40
0.0
  9
$DIMTIX
 70
         0
  9
$DIMSOXD
 70
         0
  9
$DIMSAH
 70
         0
  9
$DIMBLK1
  1

  9
$DIMBLK2
  1

  9
$DIMSTYLE
  2
STANDARD
  9
$DIMCLRD
 70
         0
  9
$DIMCLRE
 70
         0
  9
$DIMCLRT
 70
         0
  9
$DIMTFAC
 40
1.0
  9
$DIMGAP
 40
0.09
  9
$DIMJUST
 70
         0
  9
$DIMSD1
 70
         0
  9
$DIMSD2
 70
         0
  9
$DIMTOLJ
 70
         1
  9
$DIMTZIN
 70
         0
  9
$DIMALTZ
 70
         0
  9
$DIMALTTZ
 70
         0
  9
$DIMFIT
 70
         3
  9
$DIMUPT
 70
         0
  9
$DIMUNIT
 70
         2
  9
$DIMDEC
 70
         4
  9
$DIMTDEC
 70
         4
  9
$DIMALTU
 70
         2
  9
$DIMALTTD
 70
         2
  9
$DIMTXSTY
  7
STANDARD
  9
$DIMAUNIT
 70
         0
  9
$LUNITS
 70
         2
  9
$LUPREC
 70
         4
  9
$SKETCHINC
 40
0.1
  9
$FILLETRAD
 40
0.0
  9
$AUNITS
 70
         0
  9
$AUPREC
 70
         0
  9
$MENU
  1
acad
  9
$ELEVATION
 40
0.0
  9
$PELEVATION
 40
0.0
  9
$THICKNESS
 40
0.0
  9
$LIMCHECK
 70
         0
  9
$BLIPMODE
 70
         1
  9
$CHAMFERA
 40
0.0
  9
$CHAMFERB
 40
0.0
  9
$CHAMFERC
 40
0.0
  9
$CHAMFERD
 40
0.0
  9
$SKPOLY
 70
         0
  9
$TDCREATE
 40
0.000000000
  9
$TDUPDATE
 40
0.000000000
  9
$TDINDWG
 40
0.0000000000
  9
$TDUSRTIMER
 40
0.0000000000
  9
$USRTIMER
 70
         1
  9
$ANGBASE
 50
0.0
  9
$ANGDIR
 70
         0
  9
$PDMODE
 70
         0
  9
$PDSIZE
 40
0.0
  9
$PLINEWID
 40
0.0
  9
$COORDS
 70
         0
  9
$SPLFRAME
 70
         0
  9
$SPLINETYPE
 70
         6
  9
$SPLINESEGS
 70
         8
  9
$ATTDIA
 70
         0
  9
$ATTREQ
 70
         1
  9
$HANDLING
 70
         1
  9
$HANDSEED
  5
1D9
  9
$SURFTAB1
 70
         6
  9
$SURFTAB2
 70
         6
  9
$SURFTYPE
 70
         6
  9
$SURFU
 70
         6
  9
$SURFV
 70
         6
  9
$UCSNAME
  2

  9
$UCSORG
 10
0.0
 20
0.0
 30
0.0
  9
$UCSXDIR
 10
1.0
 20
0.0
 30
0.0
  9
$UCSYDIR
 10
0.0
 20
1.0
 30
0.0
  9
$PUCSNAME
  2

  9
$PUCSORG
 10
0.0
 20
0.0
 30
0.0
  9
$PUCSXDIR
 10
1.0
 20
0.0
 30
0.0
  9
$PUCSYDIR
 10
0.0
 20
1.0
 30
0.0
  9
$USERI1
 70
         0
  9
$USERI2
 70
         0
  9
$USERI3
 70
         0
  9
$USERI4
 70
         0
  9
$USERI5
 70
         0
  9
$USERR1
 40
0.0
  9
$USERR2
 40
0.0
  9
$USERR3
 40
0.0
  9
$USERR4
 40
0.0
  9
$USERR5
 40
0.0
  9
$WORLDVIEW
 70
         1
  9
$SHADEDGE
 70
         3
  9
$SHADEDIF
 70
        70
  9
$TILEMODE
 70
         1
  9
$MAXACTVP
 70
        16
  9
$PINSBASE
 10
0.0
 20
0.0
 30
0.0
  9
$PLIMCHECK
 70
         0
  9
$PEXTMIN
 10
1.0000000000E+20
 20
1.0000000000E+20
 30
1.0000000000E+20
  9
$PEXTMAX
 10
-1.0000000000E+20
 20
-1.0000000000E+20
 30
-1.0000000000E+20
  9
$PLIMMIN
 10
0.0
 20
0.0
  9
$PLIMMAX
 10
12.0
 20
9.0
  9
$UNITMODE
 70
         0
  9
$VISRETAIN
 70
         0
  9
$PLINEGEN
 70
         1
  9
$PSLTSCALE
 70
         0
  9
$TREEDEPTH
 70
      3020
  9
$PICKSTYLE
 70
         1
  9
$CMLSTYLE
  2
STANDARD
  9
$CMLJUST
 70
         0
  9
$CMLSCALE
 40
1.0
  9
$SAVEIMAGES
 70
         0
  0
ENDSEC
  0
SECTION
  2
CLASSES
  0
CLASS
  1
LWPOLYLINE
  2
AcDbPolyline
  3
"AutoCAD"
 90
        0
280
         0
281
         1
  0
CLASS
  1
IMAGE
  2
AcDbRasterImage
  3
ISM
 90
      127
280
         0
281
         1
  0
CLASS
  1
OLE2FRAME
  2
AcDbOle2Frame
  3
""
 90
        0
280
         0
281
         1
  0
CLASS
  1
HATCH
  2
AcDbHatch
  3
"ACAD_SEDONA"
 90
        0
280
         0
281
         1
  0
CLASS
  1
DICTIONARYVAR
  2
AcDbDictionaryVar
  3
"AutoCAD"
 90
        0
280
         0
281
         0
  0
CLASS
  1
RASTERVARIABLES
  2
AcDbRasterVariables
  3
ISM
 90
        0
280
         0
281
         0
  0
CLASS
  1
IMAGEDEF
  2
AcDbRasterImageDef
  3
ISM
 90
        0
280
         0
281
         0
  0
CLASS
  1
IMAGEDEF_REACTOR
  2
AcDbRasterImageDefReactor
  3
ISM
 90
        1
280
         0
281
         0
  0
CLASS
  1
IDBUFFER
  2
AcDbIdBuffer
  3
"Acad"
 90
        0
280
         0
281
         0
  0
CLASS
  1
SPATIAL_FILTER
  2
AcDbSpatialFilter
  3
"Acad"
 90
        0
280
         0
281
         0
  0
CLASS
  1
XRECORD
  2
AcDbXrecord
  3
"<Built In>"
 90
        0
280
         0
281
         0
  0
CLASS
  1
SORTENTSTABLE
  2
AcDbSortentsTable
  3
"AutoCAD"
 90
        0
280
         0
281
         0
  0
CLASS
  1
LAYER_INDEX
  2
AcDbLayerIndex
  3
"Acad"
 90
        0
280
         0
281
         0
  0
CLASS
  1
SPATIAL_INDEX
  2
AcDbSpatialIndex
  3
"Acad"
 90
        0
280
         0
281
         0
  0
CLASS
  1
OBJECT_PTR
  2
CAseDLPNTableRecord
  3
"ASE-LPNTableRecord"
 90
        1
280
         0
281
         0
  0
CLASS
  1
LAYOUT
  2
AcDbLayout
  3
"AutoCAD 2000"
 90
        1
280
         0
281
         0
  0
CLASS
  1
PLOTSETTINGS
  2
AcDbPlotSettings
  3
"AutoCAD 2000"
 90
        1
280
         0
281
         0
  0
CLASS
  1
ACDBDICTIONARYWDFLT
  2
AcDbDictionaryWithDefault
  3
"AutoCAD 2000"
 90
        1
280
         0
281
         0
  0
CLASS
  1
ACDBPLACEHOLDER
  2
AcDbPlaceHolder
  3
"AutoCAD 2000"
 90
        1
280
         0
281
         0
  0
CLASS
  1
VBA_PROJECT
  2
AcDbVbaProject
  3
"acadvba"
 90
        1
280
         0
281
         0
  0
CLASS
  1
WIPEOUT
  2
AcDbWipeout
  3
WipeOut|AutoCAD Express Tool|expresstools@autodesk.com
 90
      127
280
         0
281
         1
  0
CLASS
  1
WIPEOUTVARIABLES
  2
AcDbWipeoutVariables
  3
WipeOut|AutoCAD Express Tool|expresstools@autodesk.com
 90
        0
280
         0
281
         0
  0
CLASS
  1
RTEXT
  2
RText
  3
RText|AutoCAD Express Tool|expresstools@autodesk.com
 90
        0
280
         0
281
         1
  0
CLASS
  1
ARCALIGNEDTEXT
  2
AcDbArcAlignedText
  3
ATEXT|AutoCAD Express Tool|expresstools@autodesk.com
 90
        0
280
         0
281
         1
  0
ENDSEC
  0
SECTION
  2
TABLES
  0
TABLE
  2
VPORT
  5
7
100
AcDbSymbolTable
 70
         1
  0
VPORT
  5
15
100
AcDbSymbolTableRecord
100
AcDbViewportTableRecord
  2
*ACTIVE
 70
         0
 10
0.0
 20
0.0
 11
1.0
 21
1.0
 12
17.0
 22
11.0
 13
0.0
 23
0.0
 14
1.0
 24
1.0
 15
0.0
 25
0.0
 16
0.0
 26
0.0
 36
1.0
 17
0.0
 27
0.0
 37
0.0
 40
22.0
 41
1.604229
 42
50.0
 43
0.0
 44
0.0
 50
0.0
 51
0.0
 71
         0
 72
       100
 73
         1
 74
         1
 75
         0
 76
         0
 77
         0
 78
         0
  0
ENDTAB
  0
TABLE
  2
LTYPE
  5
4
100
AcDbSymbolTable
 70
         7
  0
LTYPE
  5
11
100
AcDbSymbolTableRecord
100
AcDbLinetypeTableRecord
  2
BYBLOCK
 70
        64
  3

 72
        65
 73
         0
 40
0.0
  0
LTYPE
  5
12
100
AcDbSymbolTableRecord
100
AcDbLinetypeTableRecord
  2
BYLAYER
 70
        64
  3

 72
        65
 73
         0
 40
0.0
  0
LTYPE
  5
13
100
AcDbSymbolTableRecord
100
AcDbLinetypeTableRecord
  2
CONTINUOUS
 70
         0
  3
Solid line
 72
        65
 73
         0
 40
0.0
  0
LTYPE
  5
21
100
AcDbSymbolTableRecord
100
AcDbLinetypeTableRecord
  2
HIDDEN2
 70
        64
  3
_ _ _ _ _ _ _ _ _ _ _ _ _ _ _ _ _ _ _ _ _ _ _ _
 72
        65
 73
         2
 40
0.1875
 49
0.125
 74
         0
 49
-0.0625
 74
         0
  0
LTYPE
  5
22
100
AcDbSymbolTableRecord
100
AcDbLinetypeTableRecord
  2
CENTER2
 70
        64
  3
___ _ ___ _ ___ _ ___ _ ___ _ ___ _ ___ _ ___ _
 72
        65
 73
         4
 40
1.125
 49
0.75
 74
         0
 49
-0.125
 74
         0
 49
0.125
 74
         0
 49
-0.125
 74
         0
  0
LTYPE
  5
23
100
AcDbSymbolTableRecord
100
AcDbLinetypeTableRecord
  2
PHANTOM2
 70
        64
  3
___ _ _ ___ _ _ ___ _ _ ___ _ _ ___ _ _ ___ _ _
 72
        65
 73
         6
 40
1.25
 49
0.625
 74
         0
 49
-0.125
 74
         0
 49
0.125
 74
         0
 49
-0.125
 74
         0
 49
0.125
 74
         0
 49
-0.125
 74
         0
  0
LTYPE
  5
24
100
AcDbSymbolTableRecord
100
AcDbLinetypeTableRecord
  2
DOT2
 70
        64
  3
...............................................
 72
        65
 73
         2
 40
0.125
 49
0.0
 74
         0
 49
-0.125
 74
         0
  0
ENDTAB
  0
TABLE
  2
LAYER
  5
2
100
AcDbSymbolTable
 70
         9
  0
LAYER
  5
14
100
AcDbSymbolTableRecord
100
AcDbLayerTableRecord
  2
0
 70
         0
 62
         7
  6
CONTINUOUS
  0
LAYER
  5
26
100
AcDbSymbolTableRecord
100
AcDbLayerTableRecord
  2
DEFAULT
 70
         0
 62
         7
  6
CONTINUOUS
  0
LAYER
  5
28
100
AcDbSymbolTableRecord
100
AcDbLayerTableRecord
  2
83539X1
 70
         0
 62
         7
  6
CONTINUOUS
  0
LAYER
  5
2A
100
AcDbSymbolTableRecord
100
AcDbLayerTableRecord
  2
54456X
 70
         0
 62
         7
  6
CONTINUOUS
  0
LAYER
  5
2C
100
AcDbSymbolTableRecord
100
AcDbLayerTableRecord
  2
54457X
 70
         0
 62
         7
  6
CONTINUOUS
  0
LAYER
  5
2E
100
AcDbSymbolTableRecord
100
AcDbLayerTableRecord
  2
428003-048
 70
         0
 62
         7
  6
CONTINUOUS
  0
LAYER
  5
30
100
AcDbSymbolTableRecord
100
AcDbLayerTableRecord
  2
81300X
 70
         0
 62
         7
  6
CONTINUOUS
  0
LAYER
  5
32
100
AcDbSymbolTableRecord
100
AcDbLayerTableRecord
  2
54462X
 70
         0
 62
         7
  6
CONTINUOUS
  0
LAYER
  5
34
100
AcDbSymbolTableRecord
100
AcDbLayerTableRecord
  2
54464X
 70
         0
 62
         7
  6
CONTINUOUS
  0
ENDTAB
  0
TABLE
  2
STYLE
  5
3
100
AcDbSymbolTable
 70
         2
  0
STYLE
  5
17
100
AcDbSymbolTableRecord
100
AcDbTextStyleTableRecord
  2
STANDARD
 70
         0
 40
0.0
 41
1.0
 50
0.0
 71
         0
 42
0.2
  3
txt
  4

  0
STYLE
  5
35
100
AcDbSymbolTableRecord
100
AcDbTextStyleTableRecord
  2
ARIAL_TTF
 70
         0
 40
0.0
 41
1.0
 50
0.0
 71
         0
 42
0.2
  3
arial.ttf
  4

1001
ACAD
1000
Arial
1071
        2
  0
ENDTAB
  0
TABLE
  2
VIEW
  5
5
100
AcDbSymbolTable
 70
         0
  0
ENDTAB
  0
TABLE
  2
UCS
  5
6
100
AcDbSymbolTable
 70
         0
  0
ENDTAB
  0
TABLE
  2
APPID
  5
8
100
AcDbSymbolTable
 70
         1
  0
APPID
  5
16
100
AcDbSymbolTableRecord
100
AcDbRegAppTableRecord
  2
ACAD
 70
         0
  0
ENDTAB
  0
TABLE
  2
DIMSTYLE
  5
9
100
AcDbSymbolTable
 70
         1
  0
DIMSTYLE
105
18
100
AcDbSymbolTableRecord
100
AcDbDimStyleTableRecord
  2
STANDARD
 70
         0
  3

  4

  5

  6

  7

 40
1.0
 41
0.18
 42
0.0625
 43
0.38
 44
0.18
 45
0.0
 46
0.0
 47
0.0
 48
0.0
 71
         0
 72
         0
 73
         1
 74
         1
 75
         0
 76
         0
 77
         0
 78
         0
140
0.18
141
0.09
142
0.0
143
25.4
144
1.0
145
0.0
146
1.0
147
0.09
170
         0
171
         2
172
         0
173
         0
174
         0
175
         0
176
         0
177
         0
178
         0
270
         2
271
         4
272
         4
273
         2
274
         2
275
         0
280
         0
281
         0
282
         0
283
         1
284
         0
285
         0
286
         0
287
         0
288
         0
340
17
  0
ENDTAB
  0
TABLE
  2
BLOCK_RECORD
  5
1
100
AcDbSymbolTable
 70
         0
  0
BLOCK_RECORD
  5
A
100
AcDbSymbolTableRecord
100
AcDbBlockTableRecord
  2
*MODEL_SPACE
  0
BLOCK_RECORD
  5
B
100
AcDbSymbolTableRecord
100
AcDbBlockTableRecord
  2
*PAPER_SPACE
  0
ENDTAB
  0
ENDSEC
  0
SECTION
  2
BLOCKS
  0
BLOCK
  5
D
100
AcDbEntity
  8
0
100
AcDbBlockBegin
  2
*MODEL_SPACE
 70
         0
 10
0.0
 20
0.0
 30
0.0
  3
*MODEL_SPACE
  1

  0
ENDBLK
  5
E
100
AcDbEntity
  8
0
100
AcDbBlockEnd
  0
BLOCK
  5
F
100
AcDbEntity
 67
         1
  8
0
100
AcDbBlockBegin
  2
*PAPER_SPACE
 70
         0
 10
0.0
 20
0.0
 30
0.0
  3
*PAPER_SPACE
  1

  0
ENDBLK
  5
10
100
AcDbEntity
 67
         1
  8
0
100
AcDbBlockEnd
  0
ENDSEC
  0
SECTION
  2
ENTITIES
  0
CIRCLE
  5
36
100
AcDbEntity
  8
83539X1
  6
CONTINUOUS
 62
         7
100
AcDbCircle
 10
17.4539033484
 20
15.3929368319
 30
0.0
 40
2.75
  0
CIRCLE
  5
37
100
AcDbEntity
  8
83539X1
  6
CONTINUOUS
 62
         7
100
AcDbCircle
 10
17.4539033484
 20
15.3929368319
 30
0.0
 40
1.2875
  0
CIRCLE
  5
38
100
AcDbEntity
  8
83539X1
  6
CONTINUOUS
 62
         7
100
AcDbCircle
 10
17.0089934098
 20
13.7325103365
 30
0.0
 40
0.166
  0
CIRCLE
  5
39
100
AcDbEntity
  8
83539X1
  6
CONTINUOUS
 62
         7
100
AcDbCircle
 10
16.2383867915
 20
16.6084533888
 30
0.0
 40
0.166
  0
CIRCLE
  5
3A
100
AcDbEntity
  8
83539X1
  6
CONTINUOUS
 62
         7
100
AcDbCircle
 10
19.1143298437
 20
15.8378467705
 30
0.0
 40
0.166
  0
ARC
  5
3B
100
AcDbEntity
  8
54456X
  6
CONTINUOUS
 62
         7
100
AcDbCircle
 10
17.4539033484
 20
15.3929368319
 30
0.0
 40
1.1381051178
100
AcDbArc
 50
357.6394978523
 51
2.3605021477
  0
ARC
  5
3C
100
AcDbEntity
  8
54456X
  6
CONTINUOUS
 62
         7
100
AcDbCircle
 10
17.4539033484
 20
15.3929368319
 30
0.0
 40
1.1155884573
100
AcDbArc
 50
2.4081735222
 51
177.5918264778
  0
LINE
  5
3D
100
AcDbEntity
  8
54456X
  6
CONTINUOUS
 62
         7
100
AcDbLine
 10
18.7474658619
 20
15.3460618319
 30
0.0
 11
18.5685065694
 21
15.3460618319
 31
0.0
  0
LINE
  5
3E
100
AcDbEntity
  8
54456X
  6
CONTINUOUS
 62
         7
100
AcDbLine
 10
18.7474658619
 20
15.4398118319
 30
0.0
 11
18.5685065694
 21
15.4398118319
 31
0.0
  0
ARC
  5
3F
100
AcDbEntity
  8
54456X
  6
CONTINUOUS
 62
         7
100
AcDbCircle
 10
17.4539033484
 20
15.3929368319
 30
0.0
 40
1.2944115427
100
AcDbArc
 50
182.0753268488
 51
357.9246731512
  0
ARC
  5
40
100
AcDbEntity
  8
54456X
  6
CONTINUOUS
 62
         7
100
AcDbCircle
 10
17.4539033484
 20
15.3929368319
 30
0.0
 40
1.1381051178
100
AcDbArc
 50
177.6394978523
 51
182.3605021477
  0
ARC
  5
41
100
AcDbEntity
  8
54456X
  6
CONTINUOUS
 62
         7
100
AcDbCircle
 10
17.4539033484
 20
15.3929368319
 30
0.0
 40
1.2944115427
100
AcDbArc
 50
2.0753268488
 51
177.9246731512
  0
LINE
  5
42
100
AcDbEntity
  8
54456X
  6
CONTINUOUS
 62
         7
100
AcDbLine
 10
16.1603408349
 20
15.3460618319
 30
0.0
 11
16.3393001273
 21
15.3460618319
 31
0.0
  0
ARC
  5
43
100
AcDbEntity
  8
54456X
  6
CONTINUOUS
 62
         7
100
AcDbCircle
 10
17.4539033484
 20
15.3929368319
 30
0.0
 40
1.2718948822
100
AcDbArc
 50
177.887916636
 51
182.112083364
  0
LINE
  5
44
100
AcDbEntity
  8
54456X
  6
CONTINUOUS
 62
         7
100
AcDbLine
 10
16.1603408349
 20
15.4398118319
 30
0.0
 11
16.3393001273
 21
15.4398118319
 31
0.0
  0
ARC
  5
45
100
AcDbEntity
  8
54456X
  6
CONTINUOUS
 62
         7
100
AcDbCircle
 10
17.4539033484
 20
15.3929368319
 30
0.0
 40
1.1155884573
100
AcDbArc
 50
182.4081735222
 51
357.5918264778
  0
ARC
  5
46
100
AcDbEntity
  8
54456X
  6
CONTINUOUS
 62
         7
100
AcDbCircle
 10
17.4539033484
 20
15.3929368319
 30
0.0
 40
1.2718948822
100
AcDbArc
 50
357.887916636
 51
2.112083364
  0
ARC
  5
47
100
AcDbEntity
  8
54457X
  6
CONTINUOUS
 62
         7
100
AcDbCircle
 10
17.4539033484
 20
15.3929368319
 30
0.0
 40
1.1333012702
100
AcDbArc
 50
0.0
 51
2.3712614382
  0
ARC
  5
48
100
AcDbEntity
  8
54457X
  6
CONTINUOUS
 62
         7
100
AcDbCircle
 10
17.4539033484
 20
15.3929368319
 30
0.0
 40
1.1333012702
100
AcDbArc
 50
177.6294864338
 51
182.3711130975
  0
ARC
  5
49
100
AcDbEntity
  8
54457X
  6
CONTINUOUS
 62
         7
100
AcDbCircle
 10
17.4539033484
 20
15.3929368319
 30
0.0
 40
1.1333012702
100
AcDbArc
 50
357.6294658762
 51
360.0
  0
CIRCLE
  5
4A
100
AcDbEntity
  8
54457X
  6
CONTINUOUS
 62
         7
100
AcDbCircle
 10
17.4539033484
 20
15.3929368319
 30
0.0
 40
1.1055057606
  0
LINE
  5
4B
100
AcDbEntity
  8
54457X
  6
CONTINUOUS
 62
         7
100
AcDbLine
 10
17.4070283484
 20
14.8929368319
 30
0.0
 11
17.5007783484
 21
14.8929368319
 31
0.0
  0
LINE
  5
4C
100
AcDbEntity
  8
54457X
  6
CONTINUOUS
 62
         7
100
AcDbLine
 10
17.4070283484
 20
14.8929368319
 30
0.0
 11
17.4070283484
 21
15.8929368319
 31
0.0
  0
LINE
  5
4D
100
AcDbEntity
  8
54457X
  6
CONTINUOUS
 62
         7
100
AcDbLine
 10
17.4070283484
 20
15.8929368319
 30
0.0
 11
17.5007783484
 21
15.8929368319
 31
0.0
  0
LINE
  5
4E
100
AcDbEntity
  8
54457X
  6
CONTINUOUS
 62
         7
100
AcDbLine
 10
17.5007783484
 20
14.8929368319
 30
0.0
 11
17.5007783484
 21
15.8929368319
 31
0.0
  0
ARC
  5
4F
100
AcDbEntity
  8
428003-048
  6
CONTINUOUS
 62
         7
100
AcDbCircle
 10
19.1143298437
 20
15.8378467705
 30
0.0
 40
0.12125
100
AcDbArc
 50
255.6749480599
 51
284.3250519401
  0
LINE
  5
50
100
AcDbEntity
  8
428003-048
  6
CONTINUOUS
 62
         7
100
AcDbLine
 10
19.1443298437
 20
15.6857777072
 30
0.0
 11
19.1443298437
 21
15.9899158337
 31
0.0
  0
ARC
  5
51
100
AcDbEntity
  8
428003-048
  6
CONTINUOUS
 62
         7
100
AcDbCircle
 10
19.1143298437
 20
15.8378467705
 30
0.0
 40
0.155
100
AcDbArc
 50
101.1599368722
 51
258.8400631278
  0
LINE
  5
52
100
AcDbEntity
  8
428003-048
  6
CONTINUOUS
 62
         7
100
AcDbLine
 10
19.0843298437
 20
15.9899158337
 30
0.0
 11
19.0843298437
 21
15.6857777072
 31
0.0
  0
ARC
  5
53
100
AcDbEntity
  8
428003-048
  6
CONTINUOUS
 62
         7
100
AcDbCircle
 10
19.1143298437
 20
15.8378467705
 30
0.0
 40
0.12125
100
AcDbArc
 50
75.6749480599
 51
104.3250519401
  0
ARC
  5
54
100
AcDbEntity
  8
428003-048
  6
CONTINUOUS
 62
         7
100
AcDbCircle
 10
19.1143298437
 20
15.8378467705
 30
0.0
 40
0.155
100
AcDbArc
 50
281.1599368722
 51
78.8400631278
  0
ARC
  5
55
100
AcDbEntity
  8
428003-048
  6
CONTINUOUS
 62
         7
100
AcDbCircle
 10
16.2383867915
 20
16.6084533888
 30
0.0
 40
0.12125
100
AcDbArc
 50
255.6749480599
 51
284.3250519401
  0
LINE
  5
56
100
AcDbEntity
  8
428003-048
  6
CONTINUOUS
 62
         7
100
AcDbLine
 10
16.2083867915
 20
16.760522452
 30
0.0
 11
16.2083867915
 21
16.4563843255
 31
0.0
  0
ARC
  5
57
100
AcDbEntity
  8
428003-048
  6
CONTINUOUS
 62
         7
100
AcDbCircle
 10
16.2383867915
 20
16.6084533888
 30
0.0
 40
0.12125
100
AcDbArc
 50
75.6749480599
 51
104.3250519401
  0
ARC
  5
58
100
AcDbEntity
  8
428003-048
  6
CONTINUOUS
 62
         7
100
AcDbCircle
 10
16.2383867915
 20
16.6084533888
 30
0.0
 40
0.155
100
AcDbArc
 50
101.1599368722
 51
258.8400631278
  0
LINE
  5
59
100
AcDbEntity
  8
428003-048
  6
CONTINUOUS
 62
         7
100
AcDbLine
 10
16.2683867915
 20
16.4563843255
 30
0.0
 11
16.2683867915
 21
16.760522452
 31
0.0
  0
ARC
  5
5A
100
AcDbEntity
  8
428003-048
  6
CONTINUOUS
 62
         7
100
AcDbCircle
 10
16.2383867915
 20
16.6084533888
 30
0.0
 40
0.155
100
AcDbArc
 50
281.1599368722
 51
78.8400631278
  0
LINE
  5
5B
100
AcDbEntity
  8
428003-048
  6
CONTINUOUS
 62
         7
100
AcDbLine
 10
17.0389934098
 20
13.5804412733
 30
0.0
 11
17.0389934098
 21
13.8845793998
 31
0.0
  0
ARC
  5
5C
100
AcDbEntity
  8
428003-048
  6
CONTINUOUS
 62
         7
100
AcDbCircle
 10
17.0089934098
 20
13.7325103365
 30
0.0
 40
0.12125
100
AcDbArc
 50
255.6749480599
 51
284.3250519401
  0
ARC
  5
5D
100
AcDbEntity
  8
428003-048
  6
CONTINUOUS
 62
         7
100
AcDbCircle
 10
17.0089934098
 20
13.7325103365
 30
0.0
 40
0.12125
100
AcDbArc
 50
75.6749480599
 51
104.3250519401
  0
ARC
  5
5E
100
AcDbEntity
  8
428003-048
  6
CONTINUOUS
 62
         7
100
AcDbCircle
 10
17.0089934098
 20
13.7325103365
 30
0.0
 40
0.155
100
AcDbArc
 50
281.1599368722
 51
78.8400631278
  0
LINE
  5
5F
100
AcDbEntity
  8
428003-048
  6
CONTINUOUS
 62
         7
100
AcDbLine
 10
16.9789934098
 20
13.8845793998
 30
0.0
 11
16.9789934098
 21
13.5804412733
 31
0.0
  0
ARC
  5
60
100
AcDbEntity
  8
428003-048
  6
CONTINUOUS
 62
         7
100
AcDbCircle
 10
17.0089934098
 20
13.7325103365
 30
0.0
 40
0.155
100
AcDbArc
 50
101.1599368722
 51
258.8400631278
  0
LINE
  5
61
100
AcDbEntity
  8
0
  6
CONTINUOUS
 62
       136
100
AcDbLine
 10
15.4169260543
 20
17.2404279695
 30
0.0
 11
14.9088115232
 21
17.7012760585
 31
0.0
  0
POLYLINE
  5
62
100
AcDbEntity
  8
0
  6
CONTINUOUS
 62
       136
100
AcDb2dPolyline
 66
         1
 10
0.0
 20
0.0
 30
0.0
  0
VERTEX
  5
63
100
AcDbEntity
  8
0
  6
CONTINUOUS
 62
       136
100
AcDbVertex
100
AcDb2dVertex
 10
15.3103400336
 20
17.3089731924
 30
0.0
  0
VERTEX
  5
64
100
AcDbEntity
  8
0
  6
CONTINUOUS
 62
       136
100
AcDbVertex
100
AcDb2dVertex
 10
15.4169260543
 20
17.2404279695
 30
0.0
  0
VERTEX
  5
65
100
AcDbEntity
  8
0
  6
CONTINUOUS
 62
       136
100
AcDbVertex
100
AcDb2dVertex
 10
15.3383323232
 20
17.3398364844
 30
0.0
  0
VERTEX
  5
66
100
AcDbEntity
  8
0
  6
CONTINUOUS
 62
       136
100
AcDbVertex
100
AcDb2dVertex
 10
15.3103400336
 20
17.3089731924
 30
0.0
  0
SEQEND
  5
67
100
AcDbEntity
  8
0
  6
CONTINUOUS
 62
       136
  0
LINE
  5
68
100
AcDbEntity
  8
0
  6
CONTINUOUS
 62
       136
100
AcDbLine
 10
14.9088114909
 20
17.7012760877
 30
0.0
 11
14.5338114863
 21
17.7012760877
 31
0.0
  0
TEXT
  5
69
100
AcDbEntity
  8
0
  6
CONTINUOUS
 62
       136
100
AcDbText
 10
13.8878875733
 20
17.6387760877
 30
0.0
 40
0.125
  1
Ø
  7
ARIAL_TTF
 11
13.8878875733
 21
17.7637760877
 31
0.0
100
AcDbText
 73
         3
  0
TEXT
  5
6A
100
AcDbEntity
  8
0
  6
CONTINUOUS
 62
       136
100
AcDbText
 10
14.0987571385
 20
17.6387760877
 30
0.0
 40
0.125
  1
5 1/2
  7
ARIAL_TTF
 11
14.0987571385
 21
17.7637760877
 31
0.0
100
AcDbText
 73
         3
  0
LINE
  5
6B
100
AcDbEntity
  8
0
  6
CONTINUOUS
 62
       136
100
AcDbLine
 10
16.3059193499
 20
15.9758510531
 30
0.0
 11
14.5980735033
 21
16.8430474887
 31
0.0
  0
POLYLINE
  5
6C
100
AcDbEntity
  8
0
  6
CONTINUOUS
 62
       136
100
AcDb2dPolyline
 66
         1
 10
0.0
 20
0.0
 30
0.0
  0
VERTEX
  5
6D
100
AcDbEntity
  8
0
  6
CONTINUOUS
 62
       136
100
AcDbVertex
100
AcDb2dVertex
 10
16.1850323253
 20
16.0138688735
 30
0.0
  0
VERTEX
  5
6E
100
AcDbEntity
  8
0
  6
CONTINUOUS
 62
       136
100
AcDbVertex
100
AcDb2dVertex
 10
16.3059193499
 20
15.9758510531
 30
0.0
  0
VERTEX
  5
6F
100
AcDbEntity
  8
0
  6
CONTINUOUS
 62
       136
100
AcDbVertex
100
AcDb2dVertex
 10
16.2038968629
 20
16.0510204588
 30
0.0
  0
VERTEX
  5
70
100
AcDbEntity
  8
0
  6
CONTINUOUS
 62
       136
100
AcDbVertex
100
AcDb2dVertex
 10
16.1850323253
 20
16.0138688735
 30
0.0
  0
SEQEND
  5
71
100
AcDbEntity
  8
0
  6
CONTINUOUS
 62
       136
  0
LINE
  5
72
100
AcDbEntity
  8
0
  6
CONTINUOUS
 62
       136
100
AcDbLine
 10
14.598073634
 20
16.8430474223
 30
0.0
 11
14.2230736294
 21
16.8430474223
 31
0.0
  0
TEXT
  5
73
100
AcDbEntity
  8
0
  6
CONTINUOUS
 62
       136
100
AcDbText
 10
13.4793236294
 20
16.7805474223
 30
0.0
 40
0.125
  1
Ø
  7
ARIAL_TTF
 11
13.4793236294
 21
16.9055474223
 31
0.0
100
AcDbText
 73
         3
  0
TEXT
  5
74
100
AcDbEntity
  8
0
  6
CONTINUOUS
 62
       136
100
AcDbText
 10
13.6901931946
 20
16.7805474223
 30
0.0
 40
0.125
  1
2 9/16
  7
ARIAL_TTF
 11
13.6901931946
 21
16.9055474223
 31
0.0
100
AcDbText
 73
         3
  0
LINE
  5
75
100
AcDbEntity
  8
0
  6
CONTINUOUS
 62
       136
100
AcDbLine
 10
16.3885458422
 20
15.7239217107
 30
0.0
 11
14.4057118446
 21
16.3399478488
 31
0.0
  0
POLYLINE
  5
76
100
AcDbEntity
  8
0
  6
CONTINUOUS
 62
       136
100
AcDb2dPolyline
 66
         1
 10
0.0
 20
0.0
 30
0.0
  0
VERTEX
  5
77
100
AcDbEntity
  8
0
  6
CONTINUOUS
 62
       136
100
AcDbVertex
100
AcDb2dVertex
 10
16.2629930866
 20
15.7411127827
 30
0.0
  0
VERTEX
  5
78
100
AcDbEntity
  8
0
  6
CONTINUOUS
 62
       136
100
AcDbVertex
100
AcDb2dVertex
 10
16.3885458422
 20
15.7239217107
 30
0.0
  0
VERTEX
  5
79
100
AcDbEntity
  8
0
  6
CONTINUOUS
 62
       136
100
AcDbVertex
100
AcDb2dVertex
 10
16.2753552049
 20
15.7809033482
 30
0.0
  0
VERTEX
  5
7A
100
AcDbEntity
  8
0
  6
CONTINUOUS
 62
       136
100
AcDbVertex
100
AcDb2dVertex
 10
16.2629930866
 20
15.7411127827
 30
0.0
  0
SEQEND
  5
7B
100
AcDbEntity
  8
0
  6
CONTINUOUS
 62
       136
  0
LINE
  5
7C
100
AcDbEntity
  8
0
  6
CONTINUOUS
 62
       136
100
AcDbLine
 10
14.4057119573
 20
16.3399478138
 30
0.0
 11
14.0307119526
 21
16.3399478138
 31
0.0
  0
TEXT
  5
7D
100
AcDbEntity
  8
0
  6
CONTINUOUS
 62
       136
100
AcDbText
 10
13.3956576048
 20
16.2774478138
 30
0.0
 40
0.125
  1
R
  7
ARIAL_TTF
 11
13.3956576048
 21
16.4024478138
 31
0.0
100
AcDbText
 73
         3
  0
TEXT
  5
7E
100
AcDbEntity
  8
0
  6
CONTINUOUS
 62
       136
100
AcDbText
 10
13.5956576048
 20
16.2774478138
 30
0.0
 40
0.125
  1
1 1/8
  7
ARIAL_TTF
 11
13.5956576048
 21
16.4024478138
 31
0.0
100
AcDbText
 73
         3
  0
POLYLINE
  5
7F
100
AcDbEntity
  8
0
  6
CONTINUOUS
 62
       136
100
AcDb2dPolyline
 66
         1
 10
0.0
 20
0.0
 30
0.0
  0
VERTEX
  5
80
100
AcDbEntity
  8
0
  6
CONTINUOUS
 62
       136
100
AcDbVertex
100
AcDb2dVertex
 10
18.9252005692
 20
16.0607239251
 30
0.0
  0
VERTEX
  5
81
100
AcDbEntity
  8
0
  6
CONTINUOUS
 62
       136
100
AcDbVertex
100
AcDb2dVertex
 10
19.0513333594
 20
16.0729528508
 30
0.0
  0
VERTEX
  5
82
100
AcDbEntity
  8
0
  6
CONTINUOUS
 62
       136
100
AcDbVertex
100
AcDb2dVertex
 10
18.9359846959
 20
16.0204770161
 30
0.0
  0
VERTEX
  5
83
100
AcDbEntity
  8
0
  6
CONTINUOUS
 62
       136
100
AcDbVertex
100
AcDb2dVertex
 10
18.9252005692
 20
16.0607239251
 30
0.0
  0
SEQEND
  5
84
100
AcDbEntity
  8
0
  6
CONTINUOUS
 62
       136
  0
POLYLINE
  5
85
100
AcDbEntity
  8
0
  6
CONTINUOUS
 62
       136
100
AcDb2dPolyline
 66
         1
 10
0.0
 20
0.0
 30
0.0
  0
VERTEX
  5
86
100
AcDbEntity
  8
0
  6
CONTINUOUS
 62
       136
100
AcDbVertex
100
AcDb2dVertex
 10
17.5062555274
 20
15.680518747
 30
0.0
  0
VERTEX
  5
87
100
AcDbEntity
  8
0
  6
CONTINUOUS
 62
       136
100
AcDbVertex
100
AcDb2dVertex
 10
17.390906864
 20
15.6280429123
 30
0.0
  0
VERTEX
  5
88
100
AcDbEntity
  8
0
  6
CONTINUOUS
 62
       136
100
AcDbVertex
100
AcDb2dVertex
 10
17.5170396542
 20
15.6402718381
 30
0.0
  0
VERTEX
  5
89
100
AcDbEntity
  8
0
  6
CONTINUOUS
 62
       136
100
AcDbVertex
100
AcDb2dVertex
 10
17.5062555274
 20
15.680518747
 30
0.0
  0
SEQEND
  5
8A
100
AcDbEntity
  8
0
  6
CONTINUOUS
 62
       136
  0
LINE
  5
8B
100
AcDbEntity
  8
0
  6
CONTINUOUS
 62
       136
100
AcDbLine
 10
19.0981536536
 20
15.8982171339
 30
0.0
 11
19.0351571693
 21
16.1333232143
 31
0.0
  0
LINE
  5
8C
100
AcDbEntity
  8
0
  6
CONTINUOUS
 62
       136
100
AcDbLine
 10
17.4377271582
 20
15.4533071953
 30
0.0
 11
17.3747306739
 21
15.6884132757
 31
0.0
  0
LINE
  5
8D
100
AcDbEntity
  8
0
  6
CONTINUOUS
 62
       136
100
AcDbLine
 10
19.0513333594
 20
16.0729528508
 30
0.0
 11
18.4605222898
 21
15.9146455019
 31
0.0
  0
LINE
  5
8E
100
AcDbEntity
  8
0
  6
CONTINUOUS
 62
       136
100
AcDbLine
 10
17.9817179336
 20
15.7863502613
 30
0.0
 11
17.390906864
 21
15.6280429123
 31
0.0
  0
TEXT
  5
8F
100
AcDbEntity
  8
0
  6
CONTINUOUS
 62
       136
100
AcDbText
 10
18.0254679336
 20
15.7879978805
 30
0.0
 40
0.125
  1
1 3/4
  7
ARIAL_TTF
 11
18.0254679336
 21
15.9129978805
 31
0.0
100
AcDbText
 73
         3
  0
LINE
  5
90
100
AcDbEntity
  8
83539X1
  6
CONTINUOUS
 62
         7
100
AcDbLine
 10
19.4514033484
 20
10.4621691404
 30
0.0
 11
19.4568276478
 21
10.5241691404
 31
0.0
  0
LINE
  5
91
100
AcDbEntity
  8
83539X1
  6
CONTINUOUS
 62
         7
100
AcDbLine
 10
15.4509790489
 20
10.5241691404
 30
0.0
 11
15.4564033484
 21
10.4621691404
 31
0.0
  0
LINE
  5
92
100
AcDbEntity
  8
83539X1
  6
CONTINUOUS
 62
         7
100
AcDbLine
 10
18.8584309923
 20
10.2281691404
 30
0.0
 11
18.8679672607
 21
10.3371691404
 31
0.0
  0
ARC
  5
93
100
AcDbEntity
  8
83539X1
  6
CONTINUOUS
 62
         7
100
AcDbCircle
 10
14.8440853729
 20
10.3681691404
 30
0.0
 40
0.25
100
AcDbArc
 50
90.0
 51
124.1061655443
  0
LINE
  5
94
100
AcDbEntity
  8
83539X1
  6
CONTINUOUS
 62
         7
100
AcDbLine
 10
14.7039033484
 20
10.5751691404
 30
0.0
 11
14.7039033484
 21
10.5241691404
 31
0.0
  0
LINE
  5
95
100
AcDbEntity
  8
83539X1
  6
CONTINUOUS
 62
         7
100
AcDbLine
 10
16.039839436
 20
10.3371691404
 30
0.0
 11
16.0493757044
 21
10.2281691404
 31
0.0
  0
ARC
  5
96
100
AcDbEntity
  8
83539X1
  6
CONTINUOUS
 62
         7
100
AcDbCircle
 10
20.0637213238
 20
10.3681691404
 30
0.0
 40
0.25
100
AcDbArc
 50
55.8938344557
 51
90.0
  0
LINE
  5
97
100
AcDbEntity
  8
83539X1
  6
CONTINUOUS
 62
         7
100
AcDbLine
 10
20.2039033484
 20
10.5241691404
 30
0.0
 11
20.2039033484
 21
10.5751691404
 31
0.0
  0
LINE
  5
98
100
AcDbEntity
  8
83539X1
  6
CONTINUOUS
 62
         7
100
AcDbLine
 10
16.0493757044
 20
10.2281691404
 30
0.0
 11
16.9455852896
 21
10.2281691404
 31
0.0
  0
LINE
  5
99
100
AcDbEntity
  8
83539X1
  6
CONTINUOUS
 62
         7
100
AcDbLine
 10
17.07240153
 20
10.2281691404
 30
0.0
 11
18.8584309923
 21
10.2281691404
 31
0.0
  0
LINE
  5
9A
100
AcDbEntity
  8
83539X1
  6
CONTINUOUS
 62
         7
100
AcDbLine
 10
14.7039033484
 20
10.5241691404
 30
0.0
 11
20.2039033484
 21
10.5241691404
 31
0.0
  0
LINE
  5
9B
100
AcDbEntity
  8
83539X1
  6
CONTINUOUS
 62
         7
100
AcDbLine
 10
14.7039033484
 20
10.5751691404
 30
0.0
 11
20.2039033484
 21
10.5751691404
 31
0.0
  0
LINE
  5
9C
100
AcDbEntity
  8
83539X1
  6
CONTINUOUS
 62
         7
100
AcDbLine
 10
14.8440853729
 20
10.6181691404
 30
0.0
 11
20.0637213238
 21
10.6181691404
 31
0.0
  0
LINE
  5
9D
100
AcDbEntity
  8
428003-048
  6
CONTINUOUS
 62
         7
100
AcDbLine
 10
19.1709503768
 20
9.9136691404
 30
0.0
 11
19.1943298437
 21
9.9291691404
 31
0.0
  0
LINE
  5
9E
100
AcDbEntity
  8
428003-048
  6
CONTINUOUS
 62
         7
100
AcDbLine
 10
19.1709503768
 20
9.9446691404
 30
0.0
 11
19.1943298437
 21
9.9601691404
 31
0.0
  0
LINE
  5
9F
100
AcDbEntity
  8
428003-048
  6
CONTINUOUS
 62
         7
100
AcDbLine
 10
19.0577093107
 20
9.9756691404
 30
0.0
 11
19.0343298437
 21
9.9601691404
 31
0.0
  0
LINE
  5
A0
100
AcDbEntity
  8
428003-048
  6
CONTINUOUS
 62
         7
100
AcDbLine
 10
19.0577093107
 20
9.9446691404
 30
0.0
 11
19.0343298437
 21
9.9291691404
 31
0.0
  0
LINE
  5
A1
100
AcDbEntity
  8
428003-048
  6
CONTINUOUS
 62
         7
100
AcDbLine
 10
19.0577093107
 20
9.8826691404
 30
0.0
 11
19.0358381965
 21
9.8681691404
 31
0.0
  0
LINE
  5
A2
100
AcDbEntity
  8
428003-048
  6
CONTINUOUS
 62
         7
100
AcDbLine
 10
19.0577093107
 20
9.9136691404
 30
0.0
 11
19.0343298437
 21
9.8981691404
 31
0.0
  0
LINE
  5
A3
100
AcDbEntity
  8
428003-048
  6
CONTINUOUS
 62
         7
100
AcDbLine
 10
19.1709503768
 20
9.8826691404
 30
0.0
 11
19.1943298437
 21
9.8981691404
 31
0.0
  0
LINE
  5
A4
100
AcDbEntity
  8
428003-048
  6
CONTINUOUS
 62
         7
100
AcDbLine
 10
19.0418716073
 20
10.3371691404
 30
0.0
 11
19.0343298437
 21
10.3321691404
 31
0.0
  0
LINE
  5
A5
100
AcDbEntity
  8
428003-048
  6
CONTINUOUS
 62
         7
100
AcDbLine
 10
19.1709503768
 20
10.3166691404
 30
0.0
 11
19.1943298437
 21
10.3321691404
 31
0.0
  0
LINE
  5
A6
100
AcDbEntity
  8
428003-048
  6
CONTINUOUS
 62
         7
100
AcDbLine
 10
19.0577093107
 20
10.2856691404
 30
0.0
 11
19.0343298437
 21
10.2701691404
 31
0.0
  0
LINE
  5
A7
100
AcDbEntity
  8
428003-048
  6
CONTINUOUS
 62
         7
100
AcDbLine
 10
19.1709503768
 20
10.2856691404
 30
0.0
 11
19.1943298437
 21
10.3011691404
 31
0.0
  0
LINE
  5
A8
100
AcDbEntity
  8
428003-048
  6
CONTINUOUS
 62
         7
100
AcDbLine
 10
19.1709503768
 20
10.2546691404
 30
0.0
 11
19.1943298437
 21
10.2701691404
 31
0.0
  0
LINE
  5
A9
100
AcDbEntity
  8
428003-048
  6
CONTINUOUS
 62
         7
100
AcDbLine
 10
19.0577093107
 20
10.3166691404
 30
0.0
 11
19.0343298437
 21
10.3011691404
 31
0.0
  0
LINE
  5
AA
100
AcDbEntity
  8
428003-048
  6
CONTINUOUS
 62
         7
100
AcDbLine
 10
19.0577093107
 20
10.2546691404
 30
0.0
 11
19.0343298437
 21
10.2391691404
 31
0.0
  0
LINE
  5
AB
100
AcDbEntity
  8
428003-048
  6
CONTINUOUS
 62
         7
100
AcDbLine
 10
19.1709503768
 20
10.2236691404
 30
0.0
 11
19.1943298437
 21
10.2391691404
 31
0.0
  0
LINE
  5
AC
100
AcDbEntity
  8
428003-048
  6
CONTINUOUS
 62
         7
100
AcDbLine
 10
19.0577093107
 20
10.2236691404
 30
0.0
 11
19.0343298437
 21
10.2081691404
 31
0.0
  0
LINE
  5
AD
100
AcDbEntity
  8
428003-048
  6
CONTINUOUS
 62
         7
100
AcDbLine
 10
19.1709503768
 20
10.1926691404
 30
0.0
 11
19.1943298437
 21
10.2081691404
 31
0.0
  0
LINE
  5
AE
100
AcDbEntity
  8
428003-048
  6
CONTINUOUS
 62
         7
100
AcDbLine
 10
19.0577093107
 20
10.1926691404
 30
0.0
 11
19.0343298437
 21
10.1771691404
 31
0.0
  0
LINE
  5
AF
100
AcDbEntity
  8
428003-048
  6
CONTINUOUS
 62
         7
100
AcDbLine
 10
19.1943298437
 20
10.1461691404
 30
0.0
 11
19.1709503768
 21
10.1616691404
 31
0.0
  0
LINE
  5
B0
100
AcDbEntity
  8
428003-048
  6
CONTINUOUS
 62
         7
100
AcDbLine
 10
19.0343298437
 20
10.1771691404
 30
0.0
 11
19.0577093107
 21
10.1616691404
 31
0.0
  0
LINE
  5
B1
100
AcDbEntity
  8
428003-048
  6
CONTINUOUS
 62
         7
100
AcDbLine
 10
19.0343298437
 20
10.1151691404
 30
0.0
 11
19.0577093107
 21
10.0996691404
 31
0.0
  0
LINE
  5
B2
100
AcDbEntity
  8
428003-048
  6
CONTINUOUS
 62
         7
100
AcDbLine
 10
19.1943298437
 20
10.1151691404
 30
0.0
 11
19.1709503768
 21
10.1306691404
 31
0.0
  0
LINE
  5
B3
100
AcDbEntity
  8
428003-048
  6
CONTINUOUS
 62
         7
100
AcDbLine
 10
19.0343298437
 20
10.1461691404
 30
0.0
 11
19.0577093107
 21
10.1306691404
 31
0.0
  0
LINE
  5
B4
100
AcDbEntity
  8
428003-048
  6
CONTINUOUS
 62
         7
100
AcDbLine
 10
19.1943298437
 20
10.0531691404
 30
0.0
 11
19.1709503768
 21
10.0686691404
 31
0.0
  0
LINE
  5
B5
100
AcDbEntity
  8
428003-048
  6
CONTINUOUS
 62
         7
100
AcDbLine
 10
19.0343298437
 20
10.0841691404
 30
0.0
 11
19.0577093107
 21
10.0686691404
 31
0.0
  0
LINE
  5
B6
100
AcDbEntity
  8
428003-048
  6
CONTINUOUS
 62
         7
100
AcDbLine
 10
19.1943298437
 20
10.0841691404
 30
0.0
 11
19.1709503768
 21
10.0996691404
 31
0.0
  0
LINE
  5
B7
100
AcDbEntity
  8
428003-048
  6
CONTINUOUS
 62
         7
100
AcDbLine
 10
19.0343298437
 20
10.0531691404
 30
0.0
 11
19.0577093107
 21
10.0376691404
 31
0.0
  0
LINE
  5
B8
100
AcDbEntity
  8
428003-048
  6
CONTINUOUS
 62
         7
100
AcDbLine
 10
19.1943298437
 20
9.9911691404
 30
0.0
 11
19.1709503768
 21
10.0066691404
 31
0.0
  0
LINE
  5
B9
100
AcDbEntity
  8
428003-048
  6
CONTINUOUS
 62
         7
100
AcDbLine
 10
19.0343298437
 20
10.0221691404
 30
0.0
 11
19.0577093107
 21
10.0066691404
 31
0.0
  0
LINE
  5
BA
100
AcDbEntity
  8
428003-048
  6
CONTINUOUS
 62
         7
100
AcDbLine
 10
19.0343298437
 20
9.9911691404
 30
0.0
 11
19.0577093107
 21
9.9756691404
 31
0.0
  0
LINE
  5
BB
100
AcDbEntity
  8
428003-048
  6
CONTINUOUS
 62
         7
100
AcDbLine
 10
19.1943298437
 20
10.0221691404
 30
0.0
 11
19.1709503768
 21
10.0376691404
 31
0.0
  0
LINE
  5
BC
100
AcDbEntity
  8
428003-048
  6
CONTINUOUS
 62
         7
100
AcDbLine
 10
19.0343298437
 20
9.9291691404
 30
0.0
 11
19.0577093107
 21
9.9136691404
 31
0.0
  0
LINE
  5
BD
100
AcDbEntity
  8
428003-048
  6
CONTINUOUS
 62
         7
100
AcDbLine
 10
19.0343298437
 20
9.9601691404
 30
0.0
 11
19.0577093107
 21
9.9446691404
 31
0.0
  0
LINE
  5
BE
100
AcDbEntity
  8
428003-048
  6
CONTINUOUS
 62
         7
100
AcDbLine
 10
19.1943298437
 20
9.9601691404
 30
0.0
 11
19.1709503768
 21
9.9756691404
 31
0.0
  0
LINE
  5
BF
100
AcDbEntity
  8
428003-048
  6
CONTINUOUS
 62
         7
100
AcDbLine
 10
19.1943298437
 20
9.9291691404
 30
0.0
 11
19.1709503768
 21
9.9446691404
 31
0.0
  0
LINE
  5
C0
100
AcDbEntity
  8
428003-048
  6
CONTINUOUS
 62
         7
100
AcDbLine
 10
19.192821491
 20
9.8681691404
 30
0.0
 11
19.1709503768
 21
9.8826691404
 31
0.0
  0
LINE
  5
C1
100
AcDbEntity
  8
428003-048
  6
CONTINUOUS
 62
         7
100
AcDbLine
 10
19.1943298437
 20
9.8981691404
 30
0.0
 11
19.1709503768
 21
9.9136691404
 31
0.0
  0
LINE
  5
C2
100
AcDbEntity
  8
428003-048
  6
CONTINUOUS
 62
         7
100
AcDbLine
 10
19.0343298437
 20
9.8981691404
 30
0.0
 11
19.0577093107
 21
9.8826691404
 31
0.0
  0
LINE
  5
C3
100
AcDbEntity
  8
428003-048
  6
CONTINUOUS
 62
         7
100
AcDbLine
 10
19.1943298437
 20
10.3321691404
 30
0.0
 11
19.1867880802
 21
10.3371691404
 31
0.0
  0
LINE
  5
C4
100
AcDbEntity
  8
428003-048
  6
CONTINUOUS
 62
         7
100
AcDbLine
 10
19.0343298437
 20
10.3321691404
 30
0.0
 11
19.0577093107
 21
10.3166691404
 31
0.0
  0
LINE
  5
C5
100
AcDbEntity
  8
428003-048
  6
CONTINUOUS
 62
         7
100
AcDbLine
 10
19.1943298437
 20
10.2701691404
 30
0.0
 11
19.1709503768
 21
10.2856691404
 31
0.0
  0
LINE
  5
C6
100
AcDbEntity
  8
428003-048
  6
CONTINUOUS
 62
         7
100
AcDbLine
 10
19.0343298437
 20
10.3011691404
 30
0.0
 11
19.0577093107
 21
10.2856691404
 31
0.0
  0
LINE
  5
C7
100
AcDbEntity
  8
428003-048
  6
CONTINUOUS
 62
         7
100
AcDbLine
 10
19.0343298437
 20
10.2701691404
 30
0.0
 11
19.0577093107
 21
10.2546691404
 31
0.0
  0
LINE
  5
C8
100
AcDbEntity
  8
428003-048
  6
CONTINUOUS
 62
         7
100
AcDbLine
 10
19.1943298437
 20
10.3011691404
 30
0.0
 11
19.1709503768
 21
10.3166691404
 31
0.0
  0
LINE
  5
C9
100
AcDbEntity
  8
428003-048
  6
CONTINUOUS
 62
         7
100
AcDbLine
 10
19.1943298437
 20
10.2391691404
 30
0.0
 11
19.1709503768
 21
10.2546691404
 31
0.0
  0
LINE
  5
CA
100
AcDbEntity
  8
428003-048
  6
CONTINUOUS
 62
         7
100
AcDbLine
 10
19.0343298437
 20
10.2391691404
 30
0.0
 11
19.0577093107
 21
10.2236691404
 31
0.0
  0
LINE
  5
CB
100
AcDbEntity
  8
428003-048
  6
CONTINUOUS
 62
         7
100
AcDbLine
 10
19.1943298437
 20
10.2081691404
 30
0.0
 11
19.1709503768
 21
10.2236691404
 31
0.0
  0
LINE
  5
CC
100
AcDbEntity
  8
428003-048
  6
CONTINUOUS
 62
         7
100
AcDbLine
 10
19.0343298437
 20
10.2081691404
 30
0.0
 11
19.0577093107
 21
10.1926691404
 31
0.0
  0
LINE
  5
CD
100
AcDbEntity
  8
428003-048
  6
CONTINUOUS
 62
         7
100
AcDbLine
 10
19.1943298437
 20
10.1771691404
 30
0.0
 11
19.1709503768
 21
10.1926691404
 31
0.0
  0
LINE
  5
CE
100
AcDbEntity
  8
428003-048
  6
CONTINUOUS
 62
         7
100
AcDbLine
 10
19.0358381965
 20
9.8681691404
 30
0.0
 11
19.192821491
 21
9.8681691404
 31
0.0
  0
LINE
  5
CF
100
AcDbEntity
  8
428003-048
  6
CONTINUOUS
 62
         7
100
AcDbLine
 10
19.0577093107
 20
10.1616691404
 30
0.0
 11
19.0343298437
 21
10.1461691404
 31
0.0
  0
LINE
  5
D0
100
AcDbEntity
  8
428003-048
  6
CONTINUOUS
 62
         7
100
AcDbLine
 10
19.0343298437
 20
10.1461691404
 30
0.0
 11
19.1943298437
 21
10.1461691404
 31
0.0
  0
LINE
  5
D1
100
AcDbEntity
  8
428003-048
  6
CONTINUOUS
 62
         7
100
AcDbLine
 10
19.0343298437
 20
10.0841691404
 30
0.0
 11
19.1943298437
 21
10.0841691404
 31
0.0
  0
LINE
  5
D2
100
AcDbEntity
  8
428003-048
  6
CONTINUOUS
 62
         7
100
AcDbLine
 10
19.0577093107
 20
10.0996691404
 30
0.0
 11
19.1709503768
 21
10.0996691404
 31
0.0
  0
LINE
  5
D3
100
AcDbEntity
  8
428003-048
  6
CONTINUOUS
 62
         7
100
AcDbLine
 10
19.0343298437
 20
10.1151691404
 30
0.0
 11
19.1943298437
 21
10.1151691404
 31
0.0
  0
LINE
  5
D4
100
AcDbEntity
  8
428003-048
  6
CONTINUOUS
 62
         7
100
AcDbLine
 10
19.0577093107
 20
10.1306691404
 30
0.0
 11
19.1709503768
 21
10.1306691404
 31
0.0
  0
LINE
  5
D5
100
AcDbEntity
  8
428003-048
  6
CONTINUOUS
 62
         7
100
AcDbLine
 10
19.0577093107
 20
10.0066691404
 30
0.0
 11
19.1709503768
 21
10.0066691404
 31
0.0
  0
LINE
  5
D6
100
AcDbEntity
  8
428003-048
  6
CONTINUOUS
 62
         7
100
AcDbLine
 10
19.0343298437
 20
9.9911691404
 30
0.0
 11
19.1943298437
 21
9.9911691404
 31
0.0
  0
LINE
  5
D7
100
AcDbEntity
  8
428003-048
  6
CONTINUOUS
 62
         7
100
AcDbLine
 10
19.0577093107
 20
10.0686691404
 30
0.0
 11
19.1709503768
 21
10.0686691404
 31
0.0
  0
LINE
  5
D8
100
AcDbEntity
  8
428003-048
  6
CONTINUOUS
 62
         7
100
AcDbLine
 10
19.0343298437
 20
10.0531691404
 30
0.0
 11
19.1943298437
 21
10.0531691404
 31
0.0
  0
LINE
  5
D9
100
AcDbEntity
  8
428003-048
  6
CONTINUOUS
 62
         7
100
AcDbLine
 10
19.0343298437
 20
10.0221691404
 30
0.0
 11
19.1943298437
 21
10.0221691404
 31
0.0
  0
LINE
  5
DA
100
AcDbEntity
  8
428003-048
  6
CONTINUOUS
 62
         7
100
AcDbLine
 10
19.0577093107
 20
10.0376691404
 30
0.0
 11
19.1709503768
 21
10.0376691404
 31
0.0
  0
LINE
  5
DB
100
AcDbEntity
  8
428003-048
  6
CONTINUOUS
 62
         7
100
AcDbLine
 10
19.0577093107
 20
9.9136691404
 30
0.0
 11
19.1709503768
 21
9.9136691404
 31
0.0
  0
LINE
  5
DC
100
AcDbEntity
  8
428003-048
  6
CONTINUOUS
 62
         7
100
AcDbLine
 10
19.0343298437
 20
9.9601691404
 30
0.0
 11
19.1943298437
 21
9.9601691404
 31
0.0
  0
LINE
  5
DD
100
AcDbEntity
  8
428003-048
  6
CONTINUOUS
 62
         7
100
AcDbLine
 10
19.0577093107
 20
9.9756691404
 30
0.0
 11
19.1709503768
 21
9.9756691404
 31
0.0
  0
LINE
  5
DE
100
AcDbEntity
  8
428003-048
  6
CONTINUOUS
 62
         7
100
AcDbLine
 10
19.0343298437
 20
9.9291691404
 30
0.0
 11
19.1943298437
 21
9.9291691404
 31
0.0
  0
LINE
  5
DF
100
AcDbEntity
  8
428003-048
  6
CONTINUOUS
 62
         7
100
AcDbLine
 10
19.0577093107
 20
9.9446691404
 30
0.0
 11
19.1709503768
 21
9.9446691404
 31
0.0
  0
LINE
  5
E0
100
AcDbEntity
  8
428003-048
  6
CONTINUOUS
 62
         7
100
AcDbLine
 10
19.0577093107
 20
9.8826691404
 30
0.0
 11
19.1709503768
 21
9.8826691404
 31
0.0
  0
LINE
  5
E1
100
AcDbEntity
  8
428003-048
  6
CONTINUOUS
 62
         7
100
AcDbLine
 10
19.0343298437
 20
9.8981691404
 30
0.0
 11
19.1943298437
 21
9.8981691404
 31
0.0
  0
LINE
  5
E2
100
AcDbEntity
  8
428003-048
  6
CONTINUOUS
 62
         7
100
AcDbLine
 10
19.0343298437
 20
10.3321691404
 30
0.0
 11
19.1943298437
 21
10.3321691404
 31
0.0
  0
LINE
  5
E3
100
AcDbEntity
  8
428003-048
  6
CONTINUOUS
 62
         7
100
AcDbLine
 10
19.0343298437
 20
10.3011691404
 30
0.0
 11
19.1943298437
 21
10.3011691404
 31
0.0
  0
LINE
  5
E4
100
AcDbEntity
  8
428003-048
  6
CONTINUOUS
 62
         7
100
AcDbLine
 10
19.0577093107
 20
10.3166691404
 30
0.0
 11
19.1709503768
 21
10.3166691404
 31
0.0
  0
LINE
  5
E5
100
AcDbEntity
  8
428003-048
  6
CONTINUOUS
 62
         7
100
AcDbLine
 10
19.0577093107
 20
10.2856691404
 30
0.0
 11
19.1709503768
 21
10.2856691404
 31
0.0
  0
LINE
  5
E6
100
AcDbEntity
  8
428003-048
  6
CONTINUOUS
 62
         7
100
AcDbLine
 10
19.0343298437
 20
10.2391691404
 30
0.0
 11
19.1943298437
 21
10.2391691404
 31
0.0
  0
LINE
  5
E7
100
AcDbEntity
  8
428003-048
  6
CONTINUOUS
 62
         7
100
AcDbLine
 10
19.0577093107
 20
10.2546691404
 30
0.0
 11
19.1709503768
 21
10.2546691404
 31
0.0
  0
LINE
  5
E8
100
AcDbEntity
  8
428003-048
  6
CONTINUOUS
 62
         7
100
AcDbLine
 10
19.0343298437
 20
10.2701691404
 30
0.0
 11
19.1943298437
 21
10.2701691404
 31
0.0
  0
LINE
  5
E9
100
AcDbEntity
  8
428003-048
  6
CONTINUOUS
 62
         7
100
AcDbLine
 10
19.0577093107
 20
10.2236691404
 30
0.0
 11
19.1709503768
 21
10.2236691404
 31
0.0
  0
LINE
  5
EA
100
AcDbEntity
  8
428003-048
  6
CONTINUOUS
 62
         7
100
AcDbLine
 10
19.0343298437
 20
10.1771691404
 30
0.0
 11
19.1943298437
 21
10.1771691404
 31
0.0
  0
LINE
  5
EB
100
AcDbEntity
  8
428003-048
  6
CONTINUOUS
 62
         7
100
AcDbLine
 10
19.0577093107
 20
10.1926691404
 30
0.0
 11
19.1709503768
 21
10.1926691404
 31
0.0
  0
LINE
  5
EC
100
AcDbEntity
  8
428003-048
  6
CONTINUOUS
 62
         7
100
AcDbLine
 10
19.0343298437
 20
10.2081691404
 30
0.0
 11
19.1943298437
 21
10.2081691404
 31
0.0
  0
LINE
  5
ED
100
AcDbEntity
  8
428003-048
  6
CONTINUOUS
 62
         7
100
AcDbLine
 10
19.0577093107
 20
10.1616691404
 30
0.0
 11
19.1709503768
 21
10.1616691404
 31
0.0
  0
LINE
  5
EE
100
AcDbEntity
  8
428003-048
  6
CONTINUOUS
 62
         7
100
AcDbLine
 10
19.1709503768
 20
10.1616691404
 30
0.0
 11
19.1943298437
 21
10.1771691404
 31
0.0
  0
LINE
  5
EF
100
AcDbEntity
  8
428003-048
  6
CONTINUOUS
 62
         7
100
AcDbLine
 10
19.1709503768
 20
10.0996691404
 30
0.0
 11
19.1943298437
 21
10.1151691404
 31
0.0
  0
LINE
  5
F0
100
AcDbEntity
  8
428003-048
  6
CONTINUOUS
 62
         7
100
AcDbLine
 10
19.0577093107
 20
10.1306691404
 30
0.0
 11
19.0343298437
 21
10.1151691404
 31
0.0
  0
LINE
  5
F1
100
AcDbEntity
  8
428003-048
  6
CONTINUOUS
 62
         7
100
AcDbLine
 10
19.1709503768
 20
10.1306691404
 30
0.0
 11
19.1943298437
 21
10.1461691404
 31
0.0
  0
LINE
  5
F2
100
AcDbEntity
  8
428003-048
  6
CONTINUOUS
 62
         7
100
AcDbLine
 10
19.0577093107
 20
10.0686691404
 30
0.0
 11
19.0343298437
 21
10.0531691404
 31
0.0
  0
LINE
  5
F3
100
AcDbEntity
  8
428003-048
  6
CONTINUOUS
 62
         7
100
AcDbLine
 10
19.1709503768
 20
10.0686691404
 30
0.0
 11
19.1943298437
 21
10.0841691404
 31
0.0
  0
LINE
  5
F4
100
AcDbEntity
  8
428003-048
  6
CONTINUOUS
 62
         7
100
AcDbLine
 10
19.0577093107
 20
10.0996691404
 30
0.0
 11
19.0343298437
 21
10.0841691404
 31
0.0
  0
LINE
  5
F5
100
AcDbEntity
  8
428003-048
  6
CONTINUOUS
 62
         7
100
AcDbLine
 10
19.1709503768
 20
10.0376691404
 30
0.0
 11
19.1943298437
 21
10.0531691404
 31
0.0
  0
LINE
  5
F6
100
AcDbEntity
  8
428003-048
  6
CONTINUOUS
 62
         7
100
AcDbLine
 10
19.0577093107
 20
10.0066691404
 30
0.0
 11
19.0343298437
 21
9.9911691404
 31
0.0
  0
LINE
  5
F7
100
AcDbEntity
  8
428003-048
  6
CONTINUOUS
 62
         7
100
AcDbLine
 10
19.1709503768
 20
10.0066691404
 30
0.0
 11
19.1943298437
 21
10.0221691404
 31
0.0
  0
LINE
  5
F8
100
AcDbEntity
  8
428003-048
  6
CONTINUOUS
 62
         7
100
AcDbLine
 10
19.1709503768
 20
9.9756691404
 30
0.0
 11
19.1943298437
 21
9.9911691404
 31
0.0
  0
LINE
  5
F9
100
AcDbEntity
  8
428003-048
  6
CONTINUOUS
 62
         7
100
AcDbLine
 10
19.0577093107
 20
10.0376691404
 30
0.0
 11
19.0343298437
 21
10.0221691404
 31
0.0
  0
LINE
  5
FA
100
AcDbEntity
  8
428003-048
  6
CONTINUOUS
 62
         7
100
AcDbLine
 10
16.3183867915
 20
10.1151691404
 30
0.0
 11
16.2950073245
 21
10.1306691404
 31
0.0
  0
LINE
  5
FB
100
AcDbEntity
  8
428003-048
  6
CONTINUOUS
 62
         7
100
AcDbLine
 10
16.1583867915
 20
10.1771691404
 30
0.0
 11
16.1817662585
 21
10.1616691404
 31
0.0
  0
LINE
  5
FC
100
AcDbEntity
  8
428003-048
  6
CONTINUOUS
 62
         7
100
AcDbLine
 10
16.1583867915
 20
10.1461691404
 30
0.0
 11
16.1817662585
 21
10.1306691404
 31
0.0
  0
LINE
  5
FD
100
AcDbEntity
  8
428003-048
  6
CONTINUOUS
 62
         7
100
AcDbLine
 10
16.3183867915
 20
10.0531691404
 30
0.0
 11
16.2950073245
 21
10.0686691404
 31
0.0
  0
LINE
  5
FE
100
AcDbEntity
  8
428003-048
  6
CONTINUOUS
 62
         7
100
AcDbLine
 10
16.1583867915
 20
10.1151691404
 30
0.0
 11
16.1817662585
 21
10.0996691404
 31
0.0
  0
LINE
  5
FF
100
AcDbEntity
  8
428003-048
  6
CONTINUOUS
 62
         7
100
AcDbLine
 10
16.1583867915
 20
10.0841691404
 30
0.0
 11
16.1817662585
 21
10.0686691404
 31
0.0
  0
LINE
  5
100
100
AcDbEntity
  8
428003-048
  6
CONTINUOUS
 62
         7
100
AcDbLine
 10
16.3183867915
 20
10.0841691404
 30
0.0
 11
16.2950073245
 21
10.0996691404
 31
0.0
  0
LINE
  5
101
100
AcDbEntity
  8
428003-048
  6
CONTINUOUS
 62
         7
100
AcDbLine
 10
16.3183867915
 20
9.9911691404
 30
0.0
 11
16.2950073245
 21
10.0066691404
 31
0.0
  0
LINE
  5
102
100
AcDbEntity
  8
428003-048
  6
CONTINUOUS
 62
         7
100
AcDbLine
 10
16.1583867915
 20
10.0531691404
 30
0.0
 11
16.1817662585
 21
10.0376691404
 31
0.0
  0
LINE
  5
103
100
AcDbEntity
  8
428003-048
  6
CONTINUOUS
 62
         7
100
AcDbLine
 10
16.1583867915
 20
10.0221691404
 30
0.0
 11
16.1817662585
 21
10.0066691404
 31
0.0
  0
LINE
  5
104
100
AcDbEntity
  8
428003-048
  6
CONTINUOUS
 62
         7
100
AcDbLine
 10
16.3183867915
 20
10.0221691404
 30
0.0
 11
16.2950073245
 21
10.0376691404
 31
0.0
  0
LINE
  5
105
100
AcDbEntity
  8
428003-048
  6
CONTINUOUS
 62
         7
100
AcDbLine
 10
16.1583867915
 20
9.9911691404
 30
0.0
 11
16.1817662585
 21
9.9756691404
 31
0.0
  0
LINE
  5
106
100
AcDbEntity
  8
428003-048
  6
CONTINUOUS
 62
         7
100
AcDbLine
 10
16.3183867915
 20
9.9291691404
 30
0.0
 11
16.2950073245
 21
9.9446691404
 31
0.0
  0
LINE
  5
107
100
AcDbEntity
  8
428003-048
  6
CONTINUOUS
 62
         7
100
AcDbLine
 10
16.1583867915
 20
9.9601691404
 30
0.0
 11
16.1817662585
 21
9.9446691404
 31
0.0
  0
LINE
  5
108
100
AcDbEntity
  8
428003-048
  6
CONTINUOUS
 62
         7
100
AcDbLine
 10
16.3183867915
 20
9.9601691404
 30
0.0
 11
16.2950073245
 21
9.9756691404
 31
0.0
  0
LINE
  5
109
100
AcDbEntity
  8
428003-048
  6
CONTINUOUS
 62
         7
100
AcDbLine
 10
16.3168784388
 20
9.8681691404
 30
0.0
 11
16.2950073245
 21
9.8826691404
 31
0.0
  0
LINE
  5
10A
100
AcDbEntity
  8
428003-048
  6
CONTINUOUS
 62
         7
100
AcDbLine
 10
16.1583867915
 20
9.9291691404
 30
0.0
 11
16.1817662585
 21
9.9136691404
 31
0.0
  0
LINE
  5
10B
100
AcDbEntity
  8
428003-048
  6
CONTINUOUS
 62
         7
100
AcDbLine
 10
16.1583867915
 20
9.8981691404
 30
0.0
 11
16.1817662585
 21
9.8826691404
 31
0.0
  0
LINE
  5
10C
100
AcDbEntity
  8
428003-048
  6
CONTINUOUS
 62
         7
100
AcDbLine
 10
16.3183867915
 20
9.8981691404
 30
0.0
 11
16.2950073245
 21
9.9136691404
 31
0.0
  0
LINE
  5
10D
100
AcDbEntity
  8
428003-048
  6
CONTINUOUS
 62
         7
100
AcDbLine
 10
16.1749786713
 20
10.2281691404
 30
0.0
 11
16.1817662585
 21
10.2236691404
 31
0.0
  0
LINE
  5
10E
100
AcDbEntity
  8
428003-048
  6
CONTINUOUS
 62
         7
100
AcDbLine
 10
16.3183867915
 20
10.2081691404
 30
0.0
 11
16.2950073245
 21
10.2236691404
 31
0.0
  0
LINE
  5
10F
100
AcDbEntity
  8
428003-048
  6
CONTINUOUS
 62
         7
100
AcDbLine
 10
16.3183867915
 20
10.1771691404
 30
0.0
 11
16.2950073245
 21
10.1926691404
 31
0.0
  0
LINE
  5
110
100
AcDbEntity
  8
428003-048
  6
CONTINUOUS
 62
         7
100
AcDbLine
 10
16.1583867915
 20
10.2081691404
 30
0.0
 11
16.1817662585
 21
10.1926691404
 31
0.0
  0
LINE
  5
111
100
AcDbEntity
  8
428003-048
  6
CONTINUOUS
 62
         7
100
AcDbLine
 10
16.1598951442
 20
9.8681691404
 30
0.0
 11
16.3168784388
 21
9.8681691404
 31
0.0
  0
LINE
  5
112
100
AcDbEntity
  8
428003-048
  6
CONTINUOUS
 62
         7
100
AcDbLine
 10
16.1817662585
 20
10.1616691404
 30
0.0
 11
16.1583867915
 21
10.1461691404
 31
0.0
  0
LINE
  5
113
100
AcDbEntity
  8
428003-048
  6
CONTINUOUS
 62
         7
100
AcDbLine
 10
16.1583867915
 20
10.1461691404
 30
0.0
 11
16.3183867915
 21
10.1461691404
 31
0.0
  0
LINE
  5
114
100
AcDbEntity
  8
428003-048
  6
CONTINUOUS
 62
         7
100
AcDbLine
 10
16.1583867915
 20
10.1151691404
 30
0.0
 11
16.3183867915
 21
10.1151691404
 31
0.0
  0
LINE
  5
115
100
AcDbEntity
  8
428003-048
  6
CONTINUOUS
 62
         7
100
AcDbLine
 10
16.1817662585
 20
10.0996691404
 30
0.0
 11
16.2950073245
 21
10.0996691404
 31
0.0
  0
LINE
  5
116
100
AcDbEntity
  8
428003-048
  6
CONTINUOUS
 62
         7
100
AcDbLine
 10
16.1817662585
 20
10.1306691404
 30
0.0
 11
16.2950073245
 21
10.1306691404
 31
0.0
  0
LINE
  5
117
100
AcDbEntity
  8
428003-048
  6
CONTINUOUS
 62
         7
100
AcDbLine
 10
16.1583867915
 20
10.0531691404
 30
0.0
 11
16.3183867915
 21
10.0531691404
 31
0.0
  0
LINE
  5
118
100
AcDbEntity
  8
428003-048
  6
CONTINUOUS
 62
         7
100
AcDbLine
 10
16.1817662585
 20
10.0686691404
 30
0.0
 11
16.2950073245
 21
10.0686691404
 31
0.0
  0
LINE
  5
119
100
AcDbEntity
  8
428003-048
  6
CONTINUOUS
 62
         7
100
AcDbLine
 10
16.1583867915
 20
10.0841691404
 30
0.0
 11
16.3183867915
 21
10.0841691404
 31
0.0
  0
LINE
  5
11A
100
AcDbEntity
  8
428003-048
  6
CONTINUOUS
 62
         7
100
AcDbLine
 10
16.1583867915
 20
10.0221691404
 30
0.0
 11
16.3183867915
 21
10.0221691404
 31
0.0
  0
LINE
  5
11B
100
AcDbEntity
  8
428003-048
  6
CONTINUOUS
 62
         7
100
AcDbLine
 10
16.1817662585
 20
10.0376691404
 30
0.0
 11
16.2950073245
 21
10.0376691404
 31
0.0
  0
LINE
  5
11C
100
AcDbEntity
  8
428003-048
  6
CONTINUOUS
 62
         7
100
AcDbLine
 10
16.1583867915
 20
9.9911691404
 30
0.0
 11
16.3183867915
 21
9.9911691404
 31
0.0
  0
LINE
  5
11D
100
AcDbEntity
  8
428003-048
  6
CONTINUOUS
 62
         7
100
AcDbLine
 10
16.1817662585
 20
9.9446691404
 30
0.0
 11
16.2950073245
 21
9.9446691404
 31
0.0
  0
LINE
  5
11E
100
AcDbEntity
  8
428003-048
  6
CONTINUOUS
 62
         7
100
AcDbLine
 10
16.1817662585
 20
10.0066691404
 30
0.0
 11
16.2950073245
 21
10.0066691404
 31
0.0
  0
LINE
  5
11F
100
AcDbEntity
  8
428003-048
  6
CONTINUOUS
 62
         7
100
AcDbLine
 10
16.1583867915
 20
9.9601691404
 30
0.0
 11
16.3183867915
 21
9.9601691404
 31
0.0
  0
LINE
  5
120
100
AcDbEntity
  8
428003-048
  6
CONTINUOUS
 62
         7
100
AcDbLine
 10
16.1817662585
 20
9.9756691404
 30
0.0
 11
16.2950073245
 21
9.9756691404
 31
0.0
  0
LINE
  5
121
100
AcDbEntity
  8
428003-048
  6
CONTINUOUS
 62
         7
100
AcDbLine
 10
16.1583867915
 20
9.9291691404
 30
0.0
 11
16.3183867915
 21
9.9291691404
 31
0.0
  0
LINE
  5
122
100
AcDbEntity
  8
428003-048
  6
CONTINUOUS
 62
         7
100
AcDbLine
 10
16.1817662585
 20
9.8826691404
 30
0.0
 11
16.2950073245
 21
9.8826691404
 31
0.0
  0
LINE
  5
123
100
AcDbEntity
  8
428003-048
  6
CONTINUOUS
 62
         7
100
AcDbLine
 10
16.1583867915
 20
9.8981691404
 30
0.0
 11
16.3183867915
 21
9.8981691404
 31
0.0
  0
LINE
  5
124
100
AcDbEntity
  8
428003-048
  6
CONTINUOUS
 62
         7
100
AcDbLine
 10
16.1817662585
 20
9.9136691404
 30
0.0
 11
16.2950073245
 21
9.9136691404
 31
0.0
  0
LINE
  5
125
100
AcDbEntity
  8
428003-048
  6
CONTINUOUS
 62
         7
100
AcDbLine
 10
16.1583867915
 20
10.1771691404
 30
0.0
 11
16.3183867915
 21
10.1771691404
 31
0.0
  0
LINE
  5
126
100
AcDbEntity
  8
428003-048
  6
CONTINUOUS
 62
         7
100
AcDbLine
 10
16.1817662585
 20
10.1616691404
 30
0.0
 11
16.2950073245
 21
10.1616691404
 31
0.0
  0
LINE
  5
127
100
AcDbEntity
  8
428003-048
  6
CONTINUOUS
 62
         7
100
AcDbLine
 10
16.1817662585
 20
10.1926691404
 30
0.0
 11
16.2950073245
 21
10.1926691404
 31
0.0
  0
LINE
  5
128
100
AcDbEntity
  8
428003-048
  6
CONTINUOUS
 62
         7
100
AcDbLine
 10
16.1583867915
 20
10.2081691404
 30
0.0
 11
16.3183867915
 21
10.2081691404
 31
0.0
  0
LINE
  5
129
100
AcDbEntity
  8
428003-048
  6
CONTINUOUS
 62
         7
100
AcDbLine
 10
16.1817662585
 20
10.2236691404
 30
0.0
 11
16.2950073245
 21
10.2236691404
 31
0.0
  0
LINE
  5
12A
100
AcDbEntity
  8
428003-048
  6
CONTINUOUS
 62
         7
100
AcDbLine
 10
16.1817662585
 20
10.1306691404
 30
0.0
 11
16.1583867915
 21
10.1151691404
 31
0.0
  0
LINE
  5
12B
100
AcDbEntity
  8
428003-048
  6
CONTINUOUS
 62
         7
100
AcDbLine
 10
16.2950073245
 20
10.1616691404
 30
0.0
 11
16.3183867915
 21
10.1771691404
 31
0.0
  0
LINE
  5
12C
100
AcDbEntity
  8
428003-048
  6
CONTINUOUS
 62
         7
100
AcDbLine
 10
16.2950073245
 20
10.1306691404
 30
0.0
 11
16.3183867915
 21
10.1461691404
 31
0.0
  0
LINE
  5
12D
100
AcDbEntity
  8
428003-048
  6
CONTINUOUS
 62
         7
100
AcDbLine
 10
16.1817662585
 20
10.0686691404
 30
0.0
 11
16.1583867915
 21
10.0531691404
 31
0.0
  0
LINE
  5
12E
100
AcDbEntity
  8
428003-048
  6
CONTINUOUS
 62
         7
100
AcDbLine
 10
16.2950073245
 20
10.0996691404
 30
0.0
 11
16.3183867915
 21
10.1151691404
 31
0.0
  0
LINE
  5
12F
100
AcDbEntity
  8
428003-048
  6
CONTINUOUS
 62
         7
100
AcDbLine
 10
16.2950073245
 20
10.0686691404
 30
0.0
 11
16.3183867915
 21
10.0841691404
 31
0.0
  0
LINE
  5
130
100
AcDbEntity
  8
428003-048
  6
CONTINUOUS
 62
         7
100
AcDbLine
 10
16.1817662585
 20
10.0996691404
 30
0.0
 11
16.1583867915
 21
10.0841691404
 31
0.0
  0
LINE
  5
131
100
AcDbEntity
  8
428003-048
  6
CONTINUOUS
 62
         7
100
AcDbLine
 10
16.1817662585
 20
10.0066691404
 30
0.0
 11
16.1583867915
 21
9.9911691404
 31
0.0
  0
LINE
  5
132
100
AcDbEntity
  8
428003-048
  6
CONTINUOUS
 62
         7
100
AcDbLine
 10
16.2950073245
 20
10.0376691404
 30
0.0
 11
16.3183867915
 21
10.0531691404
 31
0.0
  0
LINE
  5
133
100
AcDbEntity
  8
428003-048
  6
CONTINUOUS
 62
         7
100
AcDbLine
 10
16.2950073245
 20
10.0066691404
 30
0.0
 11
16.3183867915
 21
10.0221691404
 31
0.0
  0
LINE
  5
134
100
AcDbEntity
  8
428003-048
  6
CONTINUOUS
 62
         7
100
AcDbLine
 10
16.1817662585
 20
10.0376691404
 30
0.0
 11
16.1583867915
 21
10.0221691404
 31
0.0
  0
LINE
  5
135
100
AcDbEntity
  8
428003-048
  6
CONTINUOUS
 62
         7
100
AcDbLine
 10
16.2950073245
 20
9.9756691404
 30
0.0
 11
16.3183867915
 21
9.9911691404
 31
0.0
  0
LINE
  5
136
100
AcDbEntity
  8
428003-048
  6
CONTINUOUS
 62
         7
100
AcDbLine
 10
16.1817662585
 20
9.9446691404
 30
0.0
 11
16.1583867915
 21
9.9291691404
 31
0.0
  0
LINE
  5
137
100
AcDbEntity
  8
428003-048
  6
CONTINUOUS
 62
         7
100
AcDbLine
 10
16.2950073245
 20
9.9446691404
 30
0.0
 11
16.3183867915
 21
9.9601691404
 31
0.0
  0
LINE
  5
138
100
AcDbEntity
  8
428003-048
  6
CONTINUOUS
 62
         7
100
AcDbLine
 10
16.1817662585
 20
9.9756691404
 30
0.0
 11
16.1583867915
 21
9.9601691404
 31
0.0
  0
LINE
  5
139
100
AcDbEntity
  8
428003-048
  6
CONTINUOUS
 62
         7
100
AcDbLine
 10
16.1817662585
 20
9.8826691404
 30
0.0
 11
16.1598951442
 21
9.8681691404
 31
0.0
  0
LINE
  5
13A
100
AcDbEntity
  8
428003-048
  6
CONTINUOUS
 62
         7
100
AcDbLine
 10
16.2950073245
 20
9.9136691404
 30
0.0
 11
16.3183867915
 21
9.9291691404
 31
0.0
  0
LINE
  5
13B
100
AcDbEntity
  8
428003-048
  6
CONTINUOUS
 62
         7
100
AcDbLine
 10
16.2950073245
 20
9.8826691404
 30
0.0
 11
16.3183867915
 21
9.8981691404
 31
0.0
  0
LINE
  5
13C
100
AcDbEntity
  8
428003-048
  6
CONTINUOUS
 62
         7
100
AcDbLine
 10
16.1817662585
 20
9.9136691404
 30
0.0
 11
16.1583867915
 21
9.8981691404
 31
0.0
  0
LINE
  5
13D
100
AcDbEntity
  8
428003-048
  6
CONTINUOUS
 62
         7
100
AcDbLine
 10
16.2950073245
 20
10.2236691404
 30
0.0
 11
16.3017949117
 21
10.2281691404
 31
0.0
  0
LINE
  5
13E
100
AcDbEntity
  8
428003-048
  6
CONTINUOUS
 62
         7
100
AcDbLine
 10
16.1817662585
 20
10.2236691404
 30
0.0
 11
16.1583867915
 21
10.2081691404
 31
0.0
  0
LINE
  5
13F
100
AcDbEntity
  8
428003-048
  6
CONTINUOUS
 62
         7
100
AcDbLine
 10
16.1817662585
 20
10.1926691404
 30
0.0
 11
16.1583867915
 21
10.1771691404
 31
0.0
  0
LINE
  5
140
100
AcDbEntity
  8
428003-048
  6
CONTINUOUS
 62
         7
100
AcDbLine
 10
16.2950073245
 20
10.1926691404
 30
0.0
 11
16.3183867915
 21
10.2081691404
 31
0.0
  0
LINE
  5
141
100
AcDbEntity
  8
428003-048
  6
CONTINUOUS
 62
         7
100
AcDbLine
 10
16.3183867915
 20
10.1461691404
 30
0.0
 11
16.2950073245
 21
10.1616691404
 31
0.0
  0
LINE
  5
142
100
AcDbEntity
  8
428003-048
  6
CONTINUOUS
 62
         7
100
AcDbLine
 10
16.9523728768
 20
10.2856691404
 30
0.0
 11
17.0656139428
 21
10.2856691404
 31
0.0
  0
LINE
  5
143
100
AcDbEntity
  8
428003-048
  6
CONTINUOUS
 62
         7
100
AcDbLine
 10
16.9289934098
 20
10.3011691404
 30
0.0
 11
17.0889934098
 21
10.3011691404
 31
0.0
  0
LINE
  5
144
100
AcDbEntity
  8
428003-048
  6
CONTINUOUS
 62
         7
100
AcDbLine
 10
16.9523728768
 20
10.3166691404
 30
0.0
 11
17.0656139428
 21
10.3166691404
 31
0.0
  0
LINE
  5
145
100
AcDbEntity
  8
428003-048
  6
CONTINUOUS
 62
         7
100
AcDbLine
 10
16.9289934098
 20
10.2701691404
 30
0.0
 11
17.0889934098
 21
10.2701691404
 31
0.0
  0
LINE
  5
146
100
AcDbEntity
  8
428003-048
  6
CONTINUOUS
 62
         7
100
AcDbLine
 10
16.9289934098
 20
10.3321691404
 30
0.0
 11
17.0889934098
 21
10.3321691404
 31
0.0
  0
LINE
  5
147
100
AcDbEntity
  8
428003-048
  6
CONTINUOUS
 62
         7
100
AcDbLine
 10
16.9523728768
 20
10.1926691404
 30
0.0
 11
17.0656139428
 21
10.1926691404
 31
0.0
  0
LINE
  5
148
100
AcDbEntity
  8
428003-048
  6
CONTINUOUS
 62
         7
100
AcDbLine
 10
16.9523728768
 20
10.2546691404
 30
0.0
 11
17.0656139428
 21
10.2546691404
 31
0.0
  0
LINE
  5
149
100
AcDbEntity
  8
428003-048
  6
CONTINUOUS
 62
         7
100
AcDbLine
 10
16.9289934098
 20
10.2391691404
 30
0.0
 11
17.0889934098
 21
10.2391691404
 31
0.0
  0
LINE
  5
14A
100
AcDbEntity
  8
428003-048
  6
CONTINUOUS
 62
         7
100
AcDbLine
 10
16.9289934098
 20
10.2081691404
 30
0.0
 11
17.0889934098
 21
10.2081691404
 31
0.0
  0
LINE
  5
14B
100
AcDbEntity
  8
428003-048
  6
CONTINUOUS
 62
         7
100
AcDbLine
 10
16.9523728768
 20
10.2236691404
 30
0.0
 11
17.0656139428
 21
10.2236691404
 31
0.0
  0
LINE
  5
14C
100
AcDbEntity
  8
428003-048
  6
CONTINUOUS
 62
         7
100
AcDbLine
 10
16.9289934098
 20
10.1771691404
 30
0.0
 11
17.0889934098
 21
10.1771691404
 31
0.0
  0
LINE
  5
14D
100
AcDbEntity
  8
428003-048
  6
CONTINUOUS
 62
         7
100
AcDbLine
 10
16.9523728768
 20
10.1616691404
 30
0.0
 11
17.0656139428
 21
10.1616691404
 31
0.0
  0
LINE
  5
14E
100
AcDbEntity
  8
428003-048
  6
CONTINUOUS
 62
         7
100
AcDbLine
 10
17.0656139428
 20
10.1616691404
 30
0.0
 11
17.0889934098
 21
10.1771691404
 31
0.0
  0
LINE
  5
14F
100
AcDbEntity
  8
428003-048
  6
CONTINUOUS
 62
         7
100
AcDbLine
 10
17.0656139428
 20
10.1306691404
 30
0.0
 11
17.0889934098
 21
10.1461691404
 31
0.0
  0
LINE
  5
150
100
AcDbEntity
  8
428003-048
  6
CONTINUOUS
 62
         7
100
AcDbLine
 10
16.9523728768
 20
10.1306691404
 30
0.0
 11
16.9289934098
 21
10.1151691404
 31
0.0
  0
LINE
  5
151
100
AcDbEntity
  8
428003-048
  6
CONTINUOUS
 62
         7
100
AcDbLine
 10
17.0656139428
 20
10.0686691404
 30
0.0
 11
17.0889934098
 21
10.0841691404
 31
0.0
  0
LINE
  5
152
100
AcDbEntity
  8
428003-048
  6
CONTINUOUS
 62
         7
100
AcDbLine
 10
17.0656139428
 20
10.0996691404
 30
0.0
 11
17.0889934098
 21
10.1151691404
 31
0.0
  0
LINE
  5
153
100
AcDbEntity
  8
428003-048
  6
CONTINUOUS
 62
         7
100
AcDbLine
 10
16.9523728768
 20
10.0996691404
 30
0.0
 11
16.9289934098
 21
10.0841691404
 31
0.0
  0
LINE
  5
154
100
AcDbEntity
  8
428003-048
  6
CONTINUOUS
 62
         7
100
AcDbLine
 10
16.9523728768
 20
10.0686691404
 30
0.0
 11
16.9289934098
 21
10.0531691404
 31
0.0
  0
LINE
  5
155
100
AcDbEntity
  8
428003-048
  6
CONTINUOUS
 62
         7
100
AcDbLine
 10
16.9523728768
 20
10.0376691404
 30
0.0
 11
16.9289934098
 21
10.0221691404
 31
0.0
  0
LINE
  5
156
100
AcDbEntity
  8
428003-048
  6
CONTINUOUS
 62
         7
100
AcDbLine
 10
17.0656139428
 20
10.0066691404
 30
0.0
 11
17.0889934098
 21
10.0221691404
 31
0.0
  0
LINE
  5
157
100
AcDbEntity
  8
428003-048
  6
CONTINUOUS
 62
         7
100
AcDbLine
 10
17.0656139428
 20
10.0376691404
 30
0.0
 11
17.0889934098
 21
10.0531691404
 31
0.0
  0
LINE
  5
158
100
AcDbEntity
  8
428003-048
  6
CONTINUOUS
 62
         7
100
AcDbLine
 10
17.0656139428
 20
9.9446691404
 30
0.0
 11
17.0889934098
 21
9.9601691404
 31
0.0
  0
LINE
  5
159
100
AcDbEntity
  8
428003-048
  6
CONTINUOUS
 62
         7
100
AcDbLine
 10
16.9523728768
 20
9.9756691404
 30
0.0
 11
16.9289934098
 21
9.9601691404
 31
0.0
  0
LINE
  5
15A
100
AcDbEntity
  8
428003-048
  6
CONTINUOUS
 62
         7
100
AcDbLine
 10
17.0656139428
 20
9.9756691404
 30
0.0
 11
17.0889934098
 21
9.9911691404
 31
0.0
  0
LINE
  5
15B
100
AcDbEntity
  8
428003-048
  6
CONTINUOUS
 62
         7
100
AcDbLine
 10
16.9523728768
 20
10.0066691404
 30
0.0
 11
16.9289934098
 21
9.9911691404
 31
0.0
  0
LINE
  5
15C
100
AcDbEntity
  8
428003-048
  6
CONTINUOUS
 62
         7
100
AcDbLine
 10
16.9523728768
 20
9.9136691404
 30
0.0
 11
16.9289934098
 21
9.8981691404
 31
0.0
  0
LINE
  5
15D
100
AcDbEntity
  8
428003-048
  6
CONTINUOUS
 62
         7
100
AcDbLine
 10
17.0656139428
 20
9.9136691404
 30
0.0
 11
17.0889934098
 21
9.9291691404
 31
0.0
  0
LINE
  5
15E
100
AcDbEntity
  8
428003-048
  6
CONTINUOUS
 62
         7
100
AcDbLine
 10
17.0656139428
 20
9.8826691404
 30
0.0
 11
17.0889934098
 21
9.8981691404
 31
0.0
  0
LINE
  5
15F
100
AcDbEntity
  8
428003-048
  6
CONTINUOUS
 62
         7
100
AcDbLine
 10
16.9523728768
 20
9.9446691404
 30
0.0
 11
16.9289934098
 21
9.9291691404
 31
0.0
  0
LINE
  5
160
100
AcDbEntity
  8
428003-048
  6
CONTINUOUS
 62
         7
100
AcDbLine
 10
16.9523728768
 20
9.8826691404
 30
0.0
 11
16.9305017625
 21
9.8681691404
 31
0.0
  0
LINE
  5
161
100
AcDbEntity
  8
428003-048
  6
CONTINUOUS
 62
         7
100
AcDbLine
 10
17.0656139428
 20
10.2856691404
 30
0.0
 11
17.0889934098
 21
10.3011691404
 31
0.0
  0
LINE
  5
162
100
AcDbEntity
  8
428003-048
  6
CONTINUOUS
 62
         7
100
AcDbLine
 10
16.9523728768
 20
10.3166691404
 30
0.0
 11
16.9289934098
 21
10.3011691404
 31
0.0
  0
LINE
  5
163
100
AcDbEntity
  8
428003-048
  6
CONTINUOUS
 62
         7
100
AcDbLine
 10
17.0656139428
 20
10.3166691404
 30
0.0
 11
17.0889934098
 21
10.3321691404
 31
0.0
  0
LINE
  5
164
100
AcDbEntity
  8
428003-048
  6
CONTINUOUS
 62
         7
100
AcDbLine
 10
16.9365351734
 20
10.3371691404
 30
0.0
 11
16.9289934098
 21
10.3321691404
 31
0.0
  0
LINE
  5
165
100
AcDbEntity
  8
428003-048
  6
CONTINUOUS
 62
         7
100
AcDbLine
 10
16.9523728768
 20
10.2856691404
 30
0.0
 11
16.9289934098
 21
10.2701691404
 31
0.0
  0
LINE
  5
166
100
AcDbEntity
  8
428003-048
  6
CONTINUOUS
 62
         7
100
AcDbLine
 10
17.0656139428
 20
10.2546691404
 30
0.0
 11
17.0889934098
 21
10.2701691404
 31
0.0
  0
LINE
  5
167
100
AcDbEntity
  8
428003-048
  6
CONTINUOUS
 62
         7
100
AcDbLine
 10
16.9523728768
 20
10.2546691404
 30
0.0
 11
16.9289934098
 21
10.2391691404
 31
0.0
  0
LINE
  5
168
100
AcDbEntity
  8
428003-048
  6
CONTINUOUS
 62
         7
100
AcDbLine
 10
17.0656139428
 20
10.2236691404
 30
0.0
 11
17.0889934098
 21
10.2391691404
 31
0.0
  0
LINE
  5
169
100
AcDbEntity
  8
428003-048
  6
CONTINUOUS
 62
         7
100
AcDbLine
 10
16.9523728768
 20
10.1926691404
 30
0.0
 11
16.9289934098
 21
10.1771691404
 31
0.0
  0
LINE
  5
16A
100
AcDbEntity
  8
428003-048
  6
CONTINUOUS
 62
         7
100
AcDbLine
 10
17.0656139428
 20
10.1926691404
 30
0.0
 11
17.0889934098
 21
10.2081691404
 31
0.0
  0
LINE
  5
16B
100
AcDbEntity
  8
428003-048
  6
CONTINUOUS
 62
         7
100
AcDbLine
 10
16.9523728768
 20
10.2236691404
 30
0.0
 11
16.9289934098
 21
10.2081691404
 31
0.0
  0
LINE
  5
16C
100
AcDbEntity
  8
428003-048
  6
CONTINUOUS
 62
         7
100
AcDbLine
 10
17.0889934098
 20
10.1461691404
 30
0.0
 11
17.0656139428
 21
10.1616691404
 31
0.0
  0
LINE
  5
16D
100
AcDbEntity
  8
428003-048
  6
CONTINUOUS
 62
         7
100
AcDbLine
 10
16.9289934098
 20
10.1771691404
 30
0.0
 11
16.9523728768
 21
10.1616691404
 31
0.0
  0
LINE
  5
16E
100
AcDbEntity
  8
428003-048
  6
CONTINUOUS
 62
         7
100
AcDbLine
 10
16.9289934098
 20
10.1461691404
 30
0.0
 11
16.9523728768
 21
10.1306691404
 31
0.0
  0
LINE
  5
16F
100
AcDbEntity
  8
428003-048
  6
CONTINUOUS
 62
         7
100
AcDbLine
 10
17.0889934098
 20
10.1151691404
 30
0.0
 11
17.0656139428
 21
10.1306691404
 31
0.0
  0
LINE
  5
170
100
AcDbEntity
  8
428003-048
  6
CONTINUOUS
 62
         7
100
AcDbLine
 10
16.9289934098
 20
10.0841691404
 30
0.0
 11
16.9523728768
 21
10.0686691404
 31
0.0
  0
LINE
  5
171
100
AcDbEntity
  8
428003-048
  6
CONTINUOUS
 62
         7
100
AcDbLine
 10
16.9289934098
 20
10.1151691404
 30
0.0
 11
16.9523728768
 21
10.0996691404
 31
0.0
  0
LINE
  5
172
100
AcDbEntity
  8
428003-048
  6
CONTINUOUS
 62
         7
100
AcDbLine
 10
17.0889934098
 20
10.0841691404
 30
0.0
 11
17.0656139428
 21
10.0996691404
 31
0.0
  0
LINE
  5
173
100
AcDbEntity
  8
428003-048
  6
CONTINUOUS
 62
         7
100
AcDbLine
 10
17.0889934098
 20
10.0531691404
 30
0.0
 11
17.0656139428
 21
10.0686691404
 31
0.0
  0
LINE
  5
174
100
AcDbEntity
  8
428003-048
  6
CONTINUOUS
 62
         7
100
AcDbLine
 10
17.0889934098
 20
10.0221691404
 30
0.0
 11
17.0656139428
 21
10.0376691404
 31
0.0
  0
LINE
  5
175
100
AcDbEntity
  8
428003-048
  6
CONTINUOUS
 62
         7
100
AcDbLine
 10
16.9289934098
 20
10.0221691404
 30
0.0
 11
16.9523728768
 21
10.0066691404
 31
0.0
  0
LINE
  5
176
100
AcDbEntity
  8
428003-048
  6
CONTINUOUS
 62
         7
100
AcDbLine
 10
16.9289934098
 20
10.0531691404
 30
0.0
 11
16.9523728768
 21
10.0376691404
 31
0.0
  0
LINE
  5
177
100
AcDbEntity
  8
428003-048
  6
CONTINUOUS
 62
         7
100
AcDbLine
 10
16.9289934098
 20
9.9601691404
 30
0.0
 11
16.9523728768
 21
9.9446691404
 31
0.0
  0
LINE
  5
178
100
AcDbEntity
  8
428003-048
  6
CONTINUOUS
 62
         7
100
AcDbLine
 10
17.0889934098
 20
9.9601691404
 30
0.0
 11
17.0656139428
 21
9.9756691404
 31
0.0
  0
LINE
  5
179
100
AcDbEntity
  8
428003-048
  6
CONTINUOUS
 62
         7
100
AcDbLine
 10
16.9289934098
 20
9.9911691404
 30
0.0
 11
16.9523728768
 21
9.9756691404
 31
0.0
  0
LINE
  5
17A
100
AcDbEntity
  8
428003-048
  6
CONTINUOUS
 62
         7
100
AcDbLine
 10
17.0889934098
 20
9.9911691404
 30
0.0
 11
17.0656139428
 21
10.0066691404
 31
0.0
  0
LINE
  5
17B
100
AcDbEntity
  8
428003-048
  6
CONTINUOUS
 62
         7
100
AcDbLine
 10
17.0889934098
 20
9.8981691404
 30
0.0
 11
17.0656139428
 21
9.9136691404
 31
0.0
  0
LINE
  5
17C
100
AcDbEntity
  8
428003-048
  6
CONTINUOUS
 62
         7
100
AcDbLine
 10
16.9289934098
 20
9.9291691404
 30
0.0
 11
16.9523728768
 21
9.9136691404
 31
0.0
  0
LINE
  5
17D
100
AcDbEntity
  8
428003-048
  6
CONTINUOUS
 62
         7
100
AcDbLine
 10
16.9289934098
 20
9.8981691404
 30
0.0
 11
16.9523728768
 21
9.8826691404
 31
0.0
  0
LINE
  5
17E
100
AcDbEntity
  8
428003-048
  6
CONTINUOUS
 62
         7
100
AcDbLine
 10
17.0889934098
 20
9.9291691404
 30
0.0
 11
17.0656139428
 21
9.9446691404
 31
0.0
  0
LINE
  5
17F
100
AcDbEntity
  8
428003-048
  6
CONTINUOUS
 62
         7
100
AcDbLine
 10
17.0874850571
 20
9.8681691404
 30
0.0
 11
17.0656139428
 21
9.8826691404
 31
0.0
  0
LINE
  5
180
100
AcDbEntity
  8
428003-048
  6
CONTINUOUS
 62
         7
100
AcDbLine
 10
16.9289934098
 20
10.3011691404
 30
0.0
 11
16.9523728768
 21
10.2856691404
 31
0.0
  0
LINE
  5
181
100
AcDbEntity
  8
428003-048
  6
CONTINUOUS
 62
         7
100
AcDbLine
 10
17.0889934098
 20
10.3011691404
 30
0.0
 11
17.0656139428
 21
10.3166691404
 31
0.0
  0
LINE
  5
182
100
AcDbEntity
  8
428003-048
  6
CONTINUOUS
 62
         7
100
AcDbLine
 10
16.9289934098
 20
10.3321691404
 30
0.0
 11
16.9523728768
 21
10.3166691404
 31
0.0
  0
LINE
  5
183
100
AcDbEntity
  8
428003-048
  6
CONTINUOUS
 62
         7
100
AcDbLine
 10
17.0889934098
 20
10.3321691404
 30
0.0
 11
17.0814516463
 21
10.3371691404
 31
0.0
  0
LINE
  5
184
100
AcDbEntity
  8
428003-048
  6
CONTINUOUS
 62
         7
100
AcDbLine
 10
17.0889934098
 20
10.2701691404
 30
0.0
 11
17.0656139428
 21
10.2856691404
 31
0.0
  0
LINE
  5
185
100
AcDbEntity
  8
428003-048
  6
CONTINUOUS
 62
         7
100
AcDbLine
 10
16.9289934098
 20
10.2701691404
 30
0.0
 11
16.9523728768
 21
10.2546691404
 31
0.0
  0
LINE
  5
186
100
AcDbEntity
  8
428003-048
  6
CONTINUOUS
 62
         7
100
AcDbLine
 10
17.0889934098
 20
10.2391691404
 30
0.0
 11
17.0656139428
 21
10.2546691404
 31
0.0
  0
LINE
  5
187
100
AcDbEntity
  8
428003-048
  6
CONTINUOUS
 62
         7
100
AcDbLine
 10
16.9289934098
 20
10.2391691404
 30
0.0
 11
16.9523728768
 21
10.2236691404
 31
0.0
  0
LINE
  5
188
100
AcDbEntity
  8
428003-048
  6
CONTINUOUS
 62
         7
100
AcDbLine
 10
17.0889934098
 20
10.1771691404
 30
0.0
 11
17.0656139428
 21
10.1926691404
 31
0.0
  0
LINE
  5
189
100
AcDbEntity
  8
428003-048
  6
CONTINUOUS
 62
         7
100
AcDbLine
 10
16.9289934098
 20
10.2081691404
 30
0.0
 11
16.9523728768
 21
10.1926691404
 31
0.0
  0
LINE
  5
18A
100
AcDbEntity
  8
428003-048
  6
CONTINUOUS
 62
         7
100
AcDbLine
 10
17.0889934098
 20
10.2081691404
 30
0.0
 11
17.0656139428
 21
10.2236691404
 31
0.0
  0
LINE
  5
18B
100
AcDbEntity
  8
428003-048
  6
CONTINUOUS
 62
         7
100
AcDbLine
 10
16.9305017625
 20
9.8681691404
 30
0.0
 11
17.0874850571
 21
9.8681691404
 31
0.0
  0
LINE
  5
18C
100
AcDbEntity
  8
428003-048
  6
CONTINUOUS
 62
         7
100
AcDbLine
 10
16.9523728768
 20
10.1616691404
 30
0.0
 11
16.9289934098
 21
10.1461691404
 31
0.0
  0
LINE
  5
18D
100
AcDbEntity
  8
428003-048
  6
CONTINUOUS
 62
         7
100
AcDbLine
 10
16.9289934098
 20
10.1461691404
 30
0.0
 11
17.0889934098
 21
10.1461691404
 31
0.0
  0
LINE
  5
18E
100
AcDbEntity
  8
428003-048
  6
CONTINUOUS
 62
         7
100
AcDbLine
 10
16.9523728768
 20
10.1306691404
 30
0.0
 11
17.0656139428
 21
10.1306691404
 31
0.0
  0
LINE
  5
18F
100
AcDbEntity
  8
428003-048
  6
CONTINUOUS
 62
         7
100
AcDbLine
 10
16.9523728768
 20
10.0686691404
 30
0.0
 11
17.0656139428
 21
10.0686691404
 31
0.0
  0
LINE
  5
190
100
AcDbEntity
  8
428003-048
  6
CONTINUOUS
 62
         7
100
AcDbLine
 10
16.9289934098
 20
10.1151691404
 30
0.0
 11
17.0889934098
 21
10.1151691404
 31
0.0
  0
LINE
  5
191
100
AcDbEntity
  8
428003-048
  6
CONTINUOUS
 62
         7
100
AcDbLine
 10
16.9289934098
 20
10.0531691404
 30
0.0
 11
17.0889934098
 21
10.0531691404
 31
0.0
  0
LINE
  5
192
100
AcDbEntity
  8
428003-048
  6
CONTINUOUS
 62
         7
100
AcDbLine
 10
16.9289934098
 20
10.0841691404
 30
0.0
 11
17.0889934098
 21
10.0841691404
 31
0.0
  0
LINE
  5
193
100
AcDbEntity
  8
428003-048
  6
CONTINUOUS
 62
         7
100
AcDbLine
 10
16.9523728768
 20
10.0996691404
 30
0.0
 11
17.0656139428
 21
10.0996691404
 31
0.0
  0
LINE
  5
194
100
AcDbEntity
  8
428003-048
  6
CONTINUOUS
 62
         7
100
AcDbLine
 10
16.9289934098
 20
10.0221691404
 30
0.0
 11
17.0889934098
 21
10.0221691404
 31
0.0
  0
LINE
  5
195
100
AcDbEntity
  8
428003-048
  6
CONTINUOUS
 62
         7
100
AcDbLine
 10
16.9289934098
 20
9.9601691404
 30
0.0
 11
17.0889934098
 21
9.9601691404
 31
0.0
  0
LINE
  5
196
100
AcDbEntity
  8
428003-048
  6
CONTINUOUS
 62
         7
100
AcDbLine
 10
16.9523728768
 20
9.9756691404
 30
0.0
 11
17.0656139428
 21
9.9756691404
 31
0.0
  0
LINE
  5
197
100
AcDbEntity
  8
428003-048
  6
CONTINUOUS
 62
         7
100
AcDbLine
 10
16.9289934098
 20
9.9911691404
 30
0.0
 11
17.0889934098
 21
9.9911691404
 31
0.0
  0
LINE
  5
198
100
AcDbEntity
  8
428003-048
  6
CONTINUOUS
 62
         7
100
AcDbLine
 10
16.9523728768
 20
10.0066691404
 30
0.0
 11
17.0656139428
 21
10.0066691404
 31
0.0
  0
LINE
  5
199
100
AcDbEntity
  8
428003-048
  6
CONTINUOUS
 62
         7
100
AcDbLine
 10
16.9523728768
 20
10.0376691404
 30
0.0
 11
17.0656139428
 21
10.0376691404
 31
0.0
  0
LINE
  5
19A
100
AcDbEntity
  8
428003-048
  6
CONTINUOUS
 62
         7
100
AcDbLine
 10
16.9523728768
 20
9.9136691404
 30
0.0
 11
17.0656139428
 21
9.9136691404
 31
0.0
  0
LINE
  5
19B
100
AcDbEntity
  8
428003-048
  6
CONTINUOUS
 62
         7
100
AcDbLine
 10
16.9523728768
 20
9.8826691404
 30
0.0
 11
17.0656139428
 21
9.8826691404
 31
0.0
  0
LINE
  5
19C
100
AcDbEntity
  8
428003-048
  6
CONTINUOUS
 62
         7
100
AcDbLine
 10
16.9289934098
 20
9.8981691404
 30
0.0
 11
17.0889934098
 21
9.8981691404
 31
0.0
  0
LINE
  5
19D
100
AcDbEntity
  8
428003-048
  6
CONTINUOUS
 62
         7
100
AcDbLine
 10
16.9289934098
 20
9.9291691404
 30
0.0
 11
17.0889934098
 21
9.9291691404
 31
0.0
  0
LINE
  5
19E
100
AcDbEntity
  8
428003-048
  6
CONTINUOUS
 62
         7
100
AcDbLine
 10
16.9523728768
 20
9.9446691404
 30
0.0
 11
17.0656139428
 21
9.9446691404
 31
0.0
  0
LINE
  5
19F
100
AcDbEntity
  8
81300X
  6
CONTINUOUS
 62
         7
100
AcDbLine
 10
15.4538386436
 20
10.4621691404
 30
0.0
 11
15.4538386436
 21
10.3371691404
 31
0.0
  0
LINE
  5
1A0
100
AcDbEntity
  8
81300X
  6
CONTINUOUS
 62
         7
100
AcDbLine
 10
19.4538386436
 20
10.3371691404
 30
0.0
 11
19.4538386436
 21
10.4621691404
 31
0.0
  0
LINE
  5
1A1
100
AcDbEntity
  8
81300X
  6
CONTINUOUS
 62
         7
100
AcDbLine
 10
15.4538386436
 20
10.3371691404
 30
0.0
 11
19.4538386436
 21
10.3371691404
 31
0.0
  0
LINE
  5
1A2
100
AcDbEntity
  8
81300X
  6
CONTINUOUS
 62
         7
100
AcDbLine
 10
15.4538386436
 20
10.4621691404
 30
0.0
 11
19.4538386436
 21
10.4621691404
 31
0.0
  0
POLYLINE
  5
1A3
100
AcDbEntity
  8
0
  6
CONTINUOUS
 62
       136
100
AcDb2dPolyline
 66
         1
 10
0.0
 20
0.0
 30
0.0
  0
VERTEX
  5
1A4
100
AcDbEntity
  8
0
  6
CONTINUOUS
 62
       136
100
AcDbVertex
100
AcDb2dVertex
 10
21.0868903578
 20
10.4931691419
 30
0.0
  0
VERTEX
  5
1A5
100
AcDbEntity
  8
0
  6
CONTINUOUS
 62
       136
100
AcDbVertex
100
AcDb2dVertex
 10
21.0660570248
 20
10.6181691404
 30
0.0
  0
VERTEX
  5
1A6
100
AcDbEntity
  8
0
  6
CONTINUOUS
 62
       136
100
AcDbVertex
100
AcDb2dVertex
 10
21.0452236917
 20
10.4931691419
 30
0.0
  0
VERTEX
  5
1A7
100
AcDbEntity
  8
0
  6
CONTINUOUS
 62
       136
100
AcDbVertex
100
AcDb2dVertex
 10
21.0868903578
 20
10.4931691419
 30
0.0
  0
SEQEND
  5
1A8
100
AcDbEntity
  8
0
  6
CONTINUOUS
 62
       136
  0
POLYLINE
  5
1A9
100
AcDbEntity
  8
0
  6
CONTINUOUS
 62
       136
100
AcDb2dPolyline
 66
         1
 10
0.0
 20
0.0
 30
0.0
  0
VERTEX
  5
1AA
100
AcDbEntity
  8
0
  6
CONTINUOUS
 62
       136
100
AcDbVertex
100
AcDb2dVertex
 10
21.0868903578
 20
10.3531691389
 30
0.0
  0
VERTEX
  5
1AB
100
AcDbEntity
  8
0
  6
CONTINUOUS
 62
       136
100
AcDbVertex
100
AcDb2dVertex
 10
21.0660570248
 20
10.2281691404
 30
0.0
  0
VERTEX
  5
1AC
100
AcDbEntity
  8
0
  6
CONTINUOUS
 62
       136
100
AcDbVertex
100
AcDb2dVertex
 10
21.0452236917
 20
10.3531691389
 30
0.0
  0
VERTEX
  5
1AD
100
AcDbEntity
  8
0
  6
CONTINUOUS
 62
       136
100
AcDbVertex
100
AcDb2dVertex
 10
21.0868903578
 20
10.3531691389
 30
0.0
  0
SEQEND
  5
1AE
100
AcDbEntity
  8
0
  6
CONTINUOUS
 62
       136
  0
LINE
  5
1AF
100
AcDbEntity
  8
0
  6
CONTINUOUS
 62
       136
100
AcDbLine
 10
20.1262213231
 20
10.6181691404
 30
0.0
 11
21.128557024
 21
10.6181691404
 31
0.0
  0
LINE
  5
1B0
100
AcDbEntity
  8
0
  6
CONTINUOUS
 62
       136
100
AcDbLine
 10
18.9209309915
 20
10.2281691404
 30
0.0
 11
21.128557024
 21
10.2281691404
 31
0.0
  0
LINE
  5
1B1
100
AcDbEntity
  8
0
  6
CONTINUOUS
 62
       136
100
AcDbLine
 10
21.0660570248
 20
10.0899751155
 30
0.0
 11
21.4410570294
 21
10.0899751155
 31
0.0
  0
LINE
  5
1B2
100
AcDbEntity
  8
0
  6
CONTINUOUS
 62
       136
100
AcDbLine
 10
21.0660570248
 20
10.6181691404
 30
0.0
 11
21.0660570248
 21
10.0899751155
 31
0.0
  0
TEXT
  5
1B3
100
AcDbEntity
  8
0
  6
CONTINUOUS
 62
       136
100
AcDbText
 10
21.4848070294
 20
10.0274751155
 30
0.0
 40
0.125
  1
3/8
  7
ARIAL_TTF
 11
21.4848070294
 21
10.1524751155
 31
0.0
100
AcDbText
 73
         3
  0
POLYLINE
  5
1B4
100
AcDbEntity
  8
0
  6
CONTINUOUS
 62
       136
100
AcDb2dPolyline
 66
         1
 10
0.0
 20
0.0
 30
0.0
  0
VERTEX
  5
1B5
100
AcDbEntity
  8
0
  6
CONTINUOUS
 62
       136
100
AcDbVertex
100
AcDb2dVertex
 10
20.8611307258
 20
10.7431691389
 30
0.0
  0
VERTEX
  5
1B6
100
AcDbEntity
  8
0
  6
CONTINUOUS
 62
       136
100
AcDbVertex
100
AcDb2dVertex
 10
20.8402973928
 20
10.6181691404
 30
0.0
  0
VERTEX
  5
1B7
100
AcDbEntity
  8
0
  6
CONTINUOUS
 62
       136
100
AcDbVertex
100
AcDb2dVertex
 10
20.8194640597
 20
10.7431691389
 30
0.0
  0
VERTEX
  5
1B8
100
AcDbEntity
  8
0
  6
CONTINUOUS
 62
       136
100
AcDbVertex
100
AcDb2dVertex
 10
20.8611307258
 20
10.7431691389
 30
0.0
  0
SEQEND
  5
1B9
100
AcDbEntity
  8
0
  6
CONTINUOUS
 62
       136
  0
POLYLINE
  5
1BA
100
AcDbEntity
  8
0
  6
CONTINUOUS
 62
       136
100
AcDb2dPolyline
 66
         1
 10
0.0
 20
0.0
 30
0.0
  0
VERTEX
  5
1BB
100
AcDbEntity
  8
0
  6
CONTINUOUS
 62
       136
100
AcDbVertex
100
AcDb2dVertex
 10
20.8611307258
 20
10.3991691419
 30
0.0
  0
VERTEX
  5
1BC
100
AcDbEntity
  8
0
  6
CONTINUOUS
 62
       136
100
AcDbVertex
100
AcDb2dVertex
 10
20.8402973928
 20
10.5241691404
 30
0.0
  0
VERTEX
  5
1BD
100
AcDbEntity
  8
0
  6
CONTINUOUS
 62
       136
100
AcDbVertex
100
AcDb2dVertex
 10
20.8194640597
 20
10.3991691419
 30
0.0
  0
VERTEX
  5
1BE
100
AcDbEntity
  8
0
  6
CONTINUOUS
 62
       136
100
AcDbVertex
100
AcDb2dVertex
 10
20.8611307258
 20
10.3991691419
 30
0.0
  0
SEQEND
  5
1BF
100
AcDbEntity
  8
0
  6
CONTINUOUS
 62
       136
  0
LINE
  5
1C0
100
AcDbEntity
  8
0
  6
CONTINUOUS
 62
       136
100
AcDbLine
 10
20.1262213231
 20
10.6181691404
 30
0.0
 11
20.902797392
 21
10.6181691404
 31
0.0
  0
LINE
  5
1C1
100
AcDbEntity
  8
0
  6
CONTINUOUS
 62
       136
100
AcDbLine
 10
20.2664033476
 20
10.5241691404
 30
0.0
 11
20.902797392
 21
10.5241691404
 31
0.0
  0
LINE
  5
1C2
100
AcDbEntity
  8
0
  6
CONTINUOUS
 62
       136
100
AcDbLine
 10
20.8402973928
 20
10.7914424754
 30
0.0
 11
21.2152973974
 21
10.7914424754
 31
0.0
  0
LINE
  5
1C3
100
AcDbEntity
  8
0
  6
CONTINUOUS
 62
       136
100
AcDbLine
 10
20.8402973928
 20
10.7914424754
 30
0.0
 11
20.8402973928
 21
10.6181691404
 31
0.0
  0
LINE
  5
1C4
100
AcDbEntity
  8
0
  6
CONTINUOUS
 62
       136
100
AcDbLine
 10
20.8402973928
 20
10.5241691404
 30
0.0
 11
20.8402973928
 21
10.2741691434
 31
0.0
  0
TEXT
  5
1C5
100
AcDbEntity
  8
0
  6
CONTINUOUS
 62
       136
100
AcDbText
 10
21.2590473974
 20
10.7289424754
 30
0.0
 40
0.125
  1
1/8
  7
ARIAL_TTF
 11
21.2590473974
 21
10.8539424754
 31
0.0
100
AcDbText
 73
         3
  0
POLYLINE
  5
1C6
100
AcDbEntity
  8
0
  6
CONTINUOUS
 62
       136
100
AcDb2dPolyline
 66
         1
 10
0.0
 20
0.0
 30
0.0
  0
VERTEX
  5
1C7
100
AcDbEntity
  8
0
  6
CONTINUOUS
 62
       136
100
AcDbVertex
100
AcDb2dVertex
 10
20.0789033499
 20
10.9735326689
 30
0.0
  0
VERTEX
  5
1C8
100
AcDbEntity
  8
0
  6
CONTINUOUS
 62
       136
100
AcDbVertex
100
AcDb2dVertex
 10
20.2039033484
 20
10.9526993358
 30
0.0
  0
VERTEX
  5
1C9
100
AcDbEntity
  8
0
  6
CONTINUOUS
 62
       136
100
AcDbVertex
100
AcDb2dVertex
 10
20.0789033499
 20
10.9318660027
 30
0.0
  0
VERTEX
  5
1CA
100
AcDbEntity
  8
0
  6
CONTINUOUS
 62
       136
100
AcDbVertex
100
AcDb2dVertex
 10
20.0789033499
 20
10.9735326689
 30
0.0
  0
SEQEND
  5
1CB
100
AcDbEntity
  8
0
  6
CONTINUOUS
 62
       136
  0
POLYLINE
  5
1CC
100
AcDbEntity
  8
0
  6
CONTINUOUS
 62
       136
100
AcDb2dPolyline
 66
         1
 10
0.0
 20
0.0
 30
0.0
  0
VERTEX
  5
1CD
100
AcDbEntity
  8
0
  6
CONTINUOUS
 62
       136
100
AcDbVertex
100
AcDb2dVertex
 10
14.8289033468
 20
10.9735326689
 30
0.0
  0
VERTEX
  5
1CE
100
AcDbEntity
  8
0
  6
CONTINUOUS
 62
       136
100
AcDbVertex
100
AcDb2dVertex
 10
14.7039033484
 20
10.9526993358
 30
0.0
  0
VERTEX
  5
1CF
100
AcDbEntity
  8
0
  6
CONTINUOUS
 62
       136
100
AcDbVertex
100
AcDb2dVertex
 10
14.8289033468
 20
10.9318660027
 30
0.0
  0
VERTEX
  5
1D0
100
AcDbEntity
  8
0
  6
CONTINUOUS
 62
       136
100
AcDbVertex
100
AcDb2dVertex
 10
14.8289033468
 20
10.9735326689
 30
0.0
  0
SEQEND
  5
1D1
100
AcDbEntity
  8
0
  6
CONTINUOUS
 62
       136
  0
LINE
  5
1D2
100
AcDbEntity
  8
0
  6
CONTINUOUS
 62
       136
100
AcDbLine
 10
20.2039033484
 20
10.6376691396
 30
0.0
 11
20.2039033484
 21
11.015199335
 31
0.0
  0
LINE
  5
1D3
100
AcDbEntity
  8
0
  6
CONTINUOUS
 62
       136
100
AcDbLine
 10
14.7039033484
 20
10.6376691396
 30
0.0
 11
14.7039033484
 21
11.015199335
 31
0.0
  0
LINE
  5
1D4
100
AcDbEntity
  8
0
  6
CONTINUOUS
 62
       136
100
AcDbLine
 10
20.2039033484
 20
10.9526993358
 30
0.0
 11
17.693305551
 21
10.9526993358
 31
0.0
  0
LINE
  5
1D5
100
AcDbEntity
  8
0
  6
CONTINUOUS
 62
       136
100
AcDbLine
 10
17.2145011457
 20
10.9526993358
 30
0.0
 11
14.7039033484
 21
10.9526993358
 31
0.0
  0
TEXT
  5
1D6
100
AcDbEntity
  8
0
  6
CONTINUOUS
 62
       136
100
AcDbText
 10
17.2582512627
 20
10.8901993358
 30
0.0
 40
0.125
  1
5 1/2
  7
ARIAL_TTF
 11
17.2582512627
 21
11.0151993358
 31
0.0
100
AcDbText
 73
         3
  0
ENDSEC
  0
SECTION
  2
OBJECTS
  0
DICTIONARY
  5
19
100
AcDbDictionary
  3
ACAD_GROUP
350
1A
  3
ACAD_MLINESTYLE
350
1B
  0
DICTIONARY
  5
1A
102
{ACAD_REACTORS
330
19
102
}
100
AcDbDictionary
  0
DICTIONARY
  5
1B
102
{ACAD_REACTORS
330
19
102
}
100
AcDbDictionary
  3
STANDARD
350
1C
  0
MLINESTYLE
  5
1C
102
{ACAD_REACTORS
330
1B
102
}
100
AcDbMlineStyle
  2
STANDARD
 70
         0
  3

 62
         0
 51
90.0
 52
90.0
 71
         2
 49
0.5
 62
       256
  6
BYLAYER
 49
-0.5
 62
       256
  6
BYLAYER
  0
ENDSEC
  0
EOF
