  0
SECTION
  2
HEADER
  9
$ACADVER
  1
AC1012
  9
$DWGCODEPAGE
  3
ansi_1252
  9
$INSBASE
 10
0.0
 20
0.0
 30
0.0
  9
$EXTMIN
 10
0.0
 20
0.0
 30
0.0
  9
$EXTMAX
 10
34.0
 20
22.0
 30
0.0
  9
$LIMMIN
 10
0.0
 20
0.0
  9
$LIMMAX
 10
12.0
 20
9.0
  9
$ORTHOMODE
 70
         0
  9
$REGENMODE
 70
         1
  9
$FILLMODE
 70
         1
  9
$QTEXTMODE
 70
         0
  9
$MIRRTEXT
 70
         1
  9
$DRAGMODE
 70
         2
  9
$LTSCALE
 40
1.0
  9
$OSMODE
 70
         0
  9
$ATTMODE
 70
         1
  9
$TEXTSIZE
 40
0.2
  9
$TRACEWID
 40
0.05
  9
$TEXTSTYLE
  7
STANDARD
  9
$CLAYER
  8
0
  9
$CELTYPE
  6
CONTINUOUS
  9
$CECOLOR
 62
       256
  9
$CELTSCALE
 40
1.0
  9
$DELOBJ
 70
         1
  9
$DISPSILH
 70
         0
  9
$DIMSCALE
 40
1.0
  9
$DIMASZ
 40
0.18
  9
$DIMEXO
 40
0.0625
  9
$DIMDLI
 40
0.38
  9
$DIMRND
 40
0.0
  9
$DIMDLE
 40
0.0
  9
$DIMEXE
 40
0.18
  9
$DIMTP
 40
0.0
  9
$DIMTM
 40
0.0
  9
$DIMTXT
 40
0.18
  9
$DIMCEN
 40
0.09
  9
$DIMTSZ
 40
0.0
  9
$DIMTOL
 70
         0
  9
$DIMLIM
 70
         0
  9
$DIMTIH
 70
         1
  9
$DIMTOH
 70
         1
  9
$DIMSE1
 70
         0
  9
$DIMSE2
 70
         0
  9
$DIMTAD
 70
         0
  9
$DIMZIN
 70
         0
  9
$DIMBLK
  1

  9
$DIMASO
 70
         1
  9
$DIMSHO
 70
         1
  9
$DIMPOST
  1

  9
$DIMAPOST
  1

  9
$DIMALT
 70
         0
  9
$DIMALTD
 70
         2
  9
$DIMALTF
 40
25.4
  9
$DIMLFAC
 40
1.0
  9
$DIMTOFL
 70
         0
  9
$DIMTVP
 40
0.0
  9
$DIMTIX
 70
         0
  9
$DIMSOXD
 70
         0
  9
$DIMSAH
 70
         0
  9
$DIMBLK1
  1

  9
$DIMBLK2
  1

  9
$DIMSTYLE
  2
STANDARD
  9
$DIMCLRD
 70
         0
  9
$DIMCLRE
 70
         0
  9
$DIMCLRT
 70
         0
  9
$DIMTFAC
 40
1.0
  9
$DIMGAP
 40
0.09
  9
$DIMJUST
 70
         0
  9
$DIMSD1
 70
         0
  9
$DIMSD2
 70
         0
  9
$DIMTOLJ
 70
         1
  9
$DIMTZIN
 70
         0
  9
$DIMALTZ
 70
         0
  9
$DIMALTTZ
 70
         0
  9
$DIMFIT
 70
         3
  9
$DIMUPT
 70
         0
  9
$DIMUNIT
 70
         2
  9
$DIMDEC
 70
         4
  9
$DIMTDEC
 70
         4
  9
$DIMALTU
 70
         2
  9
$DIMALTTD
 70
         2
  9
$DIMTXSTY
  7
STANDARD
  9
$DIMAUNIT
 70
         0
  9
$LUNITS
 70
         2
  9
$LUPREC
 70
         4
  9
$SKETCHINC
 40
0.1
  9
$FILLETRAD
 40
0.0
  9
$AUNITS
 70
         0
  9
$AUPREC
 70
         0
  9
$MENU
  1
acad
  9
$ELEVATION
 40
0.0
  9
$PELEVATION
 40
0.0
  9
$THICKNESS
 40
0.0
  9
$LIMCHECK
 70
         0
  9
$BLIPMODE
 70
         1
  9
$CHAMFERA
 40
0.0
  9
$CHAMFERB
 40
0.0
  9
$CHAMFERC
 40
0.0
  9
$CHAMFERD
 40
0.0
  9
$SKPOLY
 70
         0
  9
$TDCREATE
 40
0.000000000
  9
$TDUPDATE
 40
0.000000000
  9
$TDINDWG
 40
0.0000000000
  9
$TDUSRTIMER
 40
0.0000000000
  9
$USRTIMER
 70
         1
  9
$ANGBASE
 50
0.0
  9
$ANGDIR
 70
         0
  9
$PDMODE
 70
         0
  9
$PDSIZE
 40
0.0
  9
$PLINEWID
 40
0.0
  9
$COORDS
 70
         0
  9
$SPLFRAME
 70
         0
  9
$SPLINETYPE
 70
         6
  9
$SPLINESEGS
 70
         8
  9
$ATTDIA
 70
         0
  9
$ATTREQ
 70
         1
  9
$HANDLING
 70
         1
  9
$HANDSEED
  5
27A
  9
$SURFTAB1
 70
         6
  9
$SURFTAB2
 70
         6
  9
$SURFTYPE
 70
         6
  9
$SURFU
 70
         6
  9
$SURFV
 70
         6
  9
$UCSNAME
  2

  9
$UCSORG
 10
0.0
 20
0.0
 30
0.0
  9
$UCSXDIR
 10
1.0
 20
0.0
 30
0.0
  9
$UCSYDIR
 10
0.0
 20
1.0
 30
0.0
  9
$PUCSNAME
  2

  9
$PUCSORG
 10
0.0
 20
0.0
 30
0.0
  9
$PUCSXDIR
 10
1.0
 20
0.0
 30
0.0
  9
$PUCSYDIR
 10
0.0
 20
1.0
 30
0.0
  9
$USERI1
 70
         0
  9
$USERI2
 70
         0
  9
$USERI3
 70
         0
  9
$USERI4
 70
         0
  9
$USERI5
 70
         0
  9
$USERR1
 40
0.0
  9
$USERR2
 40
0.0
  9
$USERR3
 40
0.0
  9
$USERR4
 40
0.0
  9
$USERR5
 40
0.0
  9
$WORLDVIEW
 70
         1
  9
$SHADEDGE
 70
         3
  9
$SHADEDIF
 70
        70
  9
$TILEMODE
 70
         1
  9
$MAXACTVP
 70
        16
  9
$PINSBASE
 10
0.0
 20
0.0
 30
0.0
  9
$PLIMCHECK
 70
         0
  9
$PEXTMIN
 10
1.0000000000E+20
 20
1.0000000000E+20
 30
1.0000000000E+20
  9
$PEXTMAX
 10
-1.0000000000E+20
 20
-1.0000000000E+20
 30
-1.0000000000E+20
  9
$PLIMMIN
 10
0.0
 20
0.0
  9
$PLIMMAX
 10
12.0
 20
9.0
  9
$UNITMODE
 70
         0
  9
$VISRETAIN
 70
         0
  9
$PLINEGEN
 70
         1
  9
$PSLTSCALE
 70
         0
  9
$TREEDEPTH
 70
      3020
  9
$PICKSTYLE
 70
         1
  9
$CMLSTYLE
  2
STANDARD
  9
$CMLJUST
 70
         0
  9
$CMLSCALE
 40
1.0
  9
$SAVEIMAGES
 70
         0
  0
ENDSEC
  0
SECTION
  2
CLASSES
  0
CLASS
  1
LWPOLYLINE
  2
AcDbPolyline
  3
"AutoCAD"
 90
        0
280
         0
281
         1
  0
CLASS
  1
IMAGE
  2
AcDbRasterImage
  3
ISM
 90
      127
280
         0
281
         1
  0
CLASS
  1
OLE2FRAME
  2
AcDbOle2Frame
  3
""
 90
        0
280
         0
281
         1
  0
CLASS
  1
HATCH
  2
AcDbHatch
  3
"ACAD_SEDONA"
 90
        0
280
         0
281
         1
  0
CLASS
  1
DICTIONARYVAR
  2
AcDbDictionaryVar
  3
"AutoCAD"
 90
        0
280
         0
281
         0
  0
CLASS
  1
RASTERVARIABLES
  2
AcDbRasterVariables
  3
ISM
 90
        0
280
         0
281
         0
  0
CLASS
  1
IMAGEDEF
  2
AcDbRasterImageDef
  3
ISM
 90
        0
280
         0
281
         0
  0
CLASS
  1
IMAGEDEF_REACTOR
  2
AcDbRasterImageDefReactor
  3
ISM
 90
        1
280
         0
281
         0
  0
CLASS
  1
IDBUFFER
  2
AcDbIdBuffer
  3
"Acad"
 90
        0
280
         0
281
         0
  0
CLASS
  1
SPATIAL_FILTER
  2
AcDbSpatialFilter
  3
"Acad"
 90
        0
280
         0
281
         0
  0
CLASS
  1
XRECORD
  2
AcDbXrecord
  3
"<Built In>"
 90
        0
280
         0
281
         0
  0
CLASS
  1
SORTENTSTABLE
  2
AcDbSortentsTable
  3
"AutoCAD"
 90
        0
280
         0
281
         0
  0
CLASS
  1
LAYER_INDEX
  2
AcDbLayerIndex
  3
"Acad"
 90
        0
280
         0
281
         0
  0
CLASS
  1
SPATIAL_INDEX
  2
AcDbSpatialIndex
  3
"Acad"
 90
        0
280
         0
281
         0
  0
CLASS
  1
OBJECT_PTR
  2
CAseDLPNTableRecord
  3
"ASE-LPNTableRecord"
 90
        1
280
         0
281
         0
  0
CLASS
  1
LAYOUT
  2
AcDbLayout
  3
"AutoCAD 2000"
 90
        1
280
         0
281
         0
  0
CLASS
  1
PLOTSETTINGS
  2
AcDbPlotSettings
  3
"AutoCAD 2000"
 90
        1
280
         0
281
         0
  0
CLASS
  1
ACDBDICTIONARYWDFLT
  2
AcDbDictionaryWithDefault
  3
"AutoCAD 2000"
 90
        1
280
         0
281
         0
  0
CLASS
  1
ACDBPLACEHOLDER
  2
AcDbPlaceHolder
  3
"AutoCAD 2000"
 90
        1
280
         0
281
         0
  0
CLASS
  1
VBA_PROJECT
  2
AcDbVbaProject
  3
"acadvba"
 90
        1
280
         0
281
         0
  0
CLASS
  1
WIPEOUT
  2
AcDbWipeout
  3
WipeOut|AutoCAD Express Tool|expresstools@autodesk.com
 90
      127
280
         0
281
         1
  0
CLASS
  1
WIPEOUTVARIABLES
  2
AcDbWipeoutVariables
  3
WipeOut|AutoCAD Express Tool|expresstools@autodesk.com
 90
        0
280
         0
281
         0
  0
CLASS
  1
RTEXT
  2
RText
  3
RText|AutoCAD Express Tool|expresstools@autodesk.com
 90
        0
280
         0
281
         1
  0
CLASS
  1
ARCALIGNEDTEXT
  2
AcDbArcAlignedText
  3
ATEXT|AutoCAD Express Tool|expresstools@autodesk.com
 90
        0
280
         0
281
         1
  0
ENDSEC
  0
SECTION
  2
TABLES
  0
TABLE
  2
VPORT
  5
7
100
AcDbSymbolTable
 70
         1
  0
VPORT
  5
15
100
AcDbSymbolTableRecord
100
AcDbViewportTableRecord
  2
*ACTIVE
 70
         0
 10
0.0
 20
0.0
 11
1.0
 21
1.0
 12
17.0
 22
11.0
 13
0.0
 23
0.0
 14
1.0
 24
1.0
 15
0.0
 25
0.0
 16
0.0
 26
0.0
 36
1.0
 17
0.0
 27
0.0
 37
0.0
 40
22.0
 41
1.604229
 42
50.0
 43
0.0
 44
0.0
 50
0.0
 51
0.0
 71
         0
 72
       100
 73
         1
 74
         1
 75
         0
 76
         0
 77
         0
 78
         0
  0
ENDTAB
  0
TABLE
  2
LTYPE
  5
4
100
AcDbSymbolTable
 70
         7
  0
LTYPE
  5
11
100
AcDbSymbolTableRecord
100
AcDbLinetypeTableRecord
  2
BYBLOCK
 70
        64
  3

 72
        65
 73
         0
 40
0.0
  0
LTYPE
  5
12
100
AcDbSymbolTableRecord
100
AcDbLinetypeTableRecord
  2
BYLAYER
 70
        64
  3

 72
        65
 73
         0
 40
0.0
  0
LTYPE
  5
13
100
AcDbSymbolTableRecord
100
AcDbLinetypeTableRecord
  2
CONTINUOUS
 70
         0
  3
Solid line
 72
        65
 73
         0
 40
0.0
  0
LTYPE
  5
21
100
AcDbSymbolTableRecord
100
AcDbLinetypeTableRecord
  2
HIDDEN2
 70
        64
  3
_ _ _ _ _ _ _ _ _ _ _ _ _ _ _ _ _ _ _ _ _ _ _ _
 72
        65
 73
         2
 40
0.1875
 49
0.125
 74
         0
 49
-0.0625
 74
         0
  0
LTYPE
  5
22
100
AcDbSymbolTableRecord
100
AcDbLinetypeTableRecord
  2
CENTER2
 70
        64
  3
___ _ ___ _ ___ _ ___ _ ___ _ ___ _ ___ _ ___ _
 72
        65
 73
         4
 40
1.125
 49
0.75
 74
         0
 49
-0.125
 74
         0
 49
0.125
 74
         0
 49
-0.125
 74
         0
  0
LTYPE
  5
23
100
AcDbSymbolTableRecord
100
AcDbLinetypeTableRecord
  2
PHANTOM2
 70
        64
  3
___ _ _ ___ _ _ ___ _ _ ___ _ _ ___ _ _ ___ _ _
 72
        65
 73
         6
 40
1.25
 49
0.625
 74
         0
 49
-0.125
 74
         0
 49
0.125
 74
         0
 49
-0.125
 74
         0
 49
0.125
 74
         0
 49
-0.125
 74
         0
  0
LTYPE
  5
24
100
AcDbSymbolTableRecord
100
AcDbLinetypeTableRecord
  2
DOT2
 70
        64
  3
...............................................
 72
        65
 73
         2
 40
0.125
 49
0.0
 74
         0
 49
-0.125
 74
         0
  0
ENDTAB
  0
TABLE
  2
LAYER
  5
2
100
AcDbSymbolTable
 70
         9
  0
LAYER
  5
14
100
AcDbSymbolTableRecord
100
AcDbLayerTableRecord
  2
0
 70
         0
 62
         7
  6
CONTINUOUS
  0
LAYER
  5
26
100
AcDbSymbolTableRecord
100
AcDbLayerTableRecord
  2
DEFAULT
 70
         0
 62
         7
  6
CONTINUOUS
  0
LAYER
  5
28
100
AcDbSymbolTableRecord
100
AcDbLayerTableRecord
  2
939005C
 70
         0
 62
         7
  6
CONTINUOUS
  0
LAYER
  5
2A
100
AcDbSymbolTableRecord
100
AcDbLayerTableRecord
  2
1_000_333
 70
         0
 62
         7
  6
CONTINUOUS
  0
LAYER
  5
2C
100
AcDbSymbolTableRecord
100
AcDbLayerTableRecord
  2
AC-MAB
 70
         0
 62
         7
  6
CONTINUOUS
  0
LAYER
  5
2E
100
AcDbSymbolTableRecord
100
AcDbLayerTableRecord
  2
2A245
 70
         0
 62
         7
  6
CONTINUOUS
  0
LAYER
  5
30
100
AcDbSymbolTableRecord
100
AcDbLayerTableRecord
  2
1_000_331
 70
         0
 62
         7
  6
CONTINUOUS
  0
LAYER
  5
32
100
AcDbSymbolTableRecord
100
AcDbLayerTableRecord
  2
1_000_329
 70
         0
 62
         7
  6
CONTINUOUS
  0
LAYER
  5
34
100
AcDbSymbolTableRecord
100
AcDbLayerTableRecord
  2
431077-040
 70
         0
 62
         7
  6
CONTINUOUS
  0
ENDTAB
  0
TABLE
  2
STYLE
  5
3
100
AcDbSymbolTable
 70
         2
  0
STYLE
  5
17
100
AcDbSymbolTableRecord
100
AcDbTextStyleTableRecord
  2
STANDARD
 70
         0
 40
0.0
 41
1.0
 50
0.0
 71
         0
 42
0.2
  3
txt
  4

  0
STYLE
  5
35
100
AcDbSymbolTableRecord
100
AcDbTextStyleTableRecord
  2
ARIAL_TTF
 70
         0
 40
0.0
 41
1.0
 50
0.0
 71
         0
 42
0.2
  3
arial.ttf
  4

1001
ACAD
1000
Arial
1071
        2
  0
ENDTAB
  0
TABLE
  2
VIEW
  5
5
100
AcDbSymbolTable
 70
         0
  0
ENDTAB
  0
TABLE
  2
UCS
  5
6
100
AcDbSymbolTable
 70
         0
  0
ENDTAB
  0
TABLE
  2
APPID
  5
8
100
AcDbSymbolTable
 70
         1
  0
APPID
  5
16
100
AcDbSymbolTableRecord
100
AcDbRegAppTableRecord
  2
ACAD
 70
         0
  0
ENDTAB
  0
TABLE
  2
DIMSTYLE
  5
9
100
AcDbSymbolTable
 70
         1
  0
DIMSTYLE
105
18
100
AcDbSymbolTableRecord
100
AcDbDimStyleTableRecord
  2
STANDARD
 70
         0
  3

  4

  5

  6

  7

 40
1.0
 41
0.18
 42
0.0625
 43
0.38
 44
0.18
 45
0.0
 46
0.0
 47
0.0
 48
0.0
 71
         0
 72
         0
 73
         1
 74
         1
 75
         0
 76
         0
 77
         0
 78
         0
140
0.18
141
0.09
142
0.0
143
25.4
144
1.0
145
0.0
146
1.0
147
0.09
170
         0
171
         2
172
         0
173
         0
174
         0
175
         0
176
         0
177
         0
178
         0
270
         2
271
         4
272
         4
273
         2
274
         2
275
         0
280
         0
281
         0
282
         0
283
         1
284
         0
285
         0
286
         0
287
         0
288
         0
340
17
  0
ENDTAB
  0
TABLE
  2
BLOCK_RECORD
  5
1
100
AcDbSymbolTable
 70
         0
  0
BLOCK_RECORD
  5
A
100
AcDbSymbolTableRecord
100
AcDbBlockTableRecord
  2
*MODEL_SPACE
  0
BLOCK_RECORD
  5
B
100
AcDbSymbolTableRecord
100
AcDbBlockTableRecord
  2
*PAPER_SPACE
  0
ENDTAB
  0
ENDSEC
  0
SECTION
  2
BLOCKS
  0
BLOCK
  5
D
100
AcDbEntity
  8
0
100
AcDbBlockBegin
  2
*MODEL_SPACE
 70
         0
 10
0.0
 20
0.0
 30
0.0
  3
*MODEL_SPACE
  1

  0
ENDBLK
  5
E
100
AcDbEntity
  8
0
100
AcDbBlockEnd
  0
BLOCK
  5
F
100
AcDbEntity
 67
         1
  8
0
100
AcDbBlockBegin
  2
*PAPER_SPACE
 70
         0
 10
0.0
 20
0.0
 30
0.0
  3
*PAPER_SPACE
  1

  0
ENDBLK
  5
10
100
AcDbEntity
 67
         1
  8
0
100
AcDbBlockEnd
  0
ENDSEC
  0
SECTION
  2
ENTITIES
  0
TEXT
  5
36
100
AcDbEntity
  8
DEFAULT
  6
CONTINUOUS
 62
         7
100
AcDbText
 10
10.014138914
 20
5.1306176664
 30
0.0
 40
0.5
  1
CATALOG NUMBER: 829PFL-BLK
  7
ARIAL_TTF
 11
10.014138914
 21
5.6306176664
 31
0.0
100
AcDbText
 73
         3
  0
TEXT
  5
37
100
AcDbEntity
  8
DEFAULT
  6
CONTINUOUS
 62
         7
100
AcDbText
 10
10.014138914
 20
4.3480089708
 30
0.0
 40
0.5
  1
PLATFORM: FULLY ADJUSTABLE FLOOR BOXES
  7
ARIAL_TTF
 11
10.014138914
 21
4.8480089708
 31
0.0
100
AcDbText
 73
         3
  0
TEXT
  5
38
100
AcDbEntity
  8
DEFAULT
  6
CONTINUOUS
 62
         7
100
AcDbText
 10
10.014138914
 20
3.5654002751
 30
0.0
 40
0.5
  1
COVER PLATE
  7
ARIAL_TTF
 11
10.014138914
 21
4.0654002751
 31
0.0
100
AcDbText
 73
         3
  0
LINE
  5
39
100
AcDbEntity
  8
939005C
  6
CONTINUOUS
 62
         7
100
AcDbLine
 10
10.7716644259
 20
9.7152501782
 30
0.0
 11
14.2696644259
 21
9.7152501782
 31
0.0
  0
LINE
  5
3A
100
AcDbEntity
  8
939005C
  6
CONTINUOUS
 62
         7
100
AcDbLine
 10
14.2696644259
 20
9.7152501782
 30
0.0
 11
14.2696644259
 21
10.4032501782
 31
0.0
  0
LINE
  5
3B
100
AcDbEntity
  8
939005C
  6
CONTINUOUS
 62
         7
100
AcDbLine
 10
10.7716644259
 20
9.7152501782
 30
0.0
 11
10.7716644259
 21
10.4032501782
 31
0.0
  0
LINE
  5
3C
100
AcDbEntity
  8
939005C
  6
CONTINUOUS
 62
         7
100
AcDbLine
 10
10.1456644259
 20
10.4032501782
 30
0.0
 11
14.8956644259
 21
10.4032501782
 31
0.0
  0
LINE
  5
3D
100
AcDbEntity
  8
939005C
  6
CONTINUOUS
 62
         7
100
AcDbLine
 10
10.3956644259
 20
10.5902501782
 30
0.0
 11
10.1456644259
 21
10.4652501782
 31
0.0
  0
LINE
  5
3E
100
AcDbEntity
  8
939005C
  6
CONTINUOUS
 62
         7
100
AcDbLine
 10
14.6456644259
 20
10.5902501782
 30
0.0
 11
14.8956644259
 21
10.4652501782
 31
0.0
  0
LINE
  5
3F
100
AcDbEntity
  8
939005C
  6
CONTINUOUS
 62
         7
100
AcDbLine
 10
14.8956644259
 20
10.4652501782
 30
0.0
 11
14.8956644259
 21
10.4032501782
 31
0.0
  0
LINE
  5
40
100
AcDbEntity
  8
939005C
  6
CONTINUOUS
 62
         7
100
AcDbLine
 10
10.1456644259
 20
10.4652501782
 30
0.0
 11
10.1456644259
 21
10.4032501782
 31
0.0
  0
LINE
  5
41
100
AcDbEntity
  8
939005C
  6
CONTINUOUS
 62
         7
100
AcDbLine
 10
10.3956644259
 20
10.5902501782
 30
0.0
 11
14.6456644259
 21
10.5902501782
 31
0.0
  0
LINE
  5
42
100
AcDbEntity
  8
939005C
  6
CONTINUOUS
 62
         7
100
AcDbLine
 10
14.8956644259
 20
10.4652501782
 30
0.0
 11
10.1456644259
 21
10.4652501782
 31
0.0
  0
LINE
  5
43
100
AcDbEntity
  8
AC-MAB
  6
CONTINUOUS
 62
         7
100
AcDbLine
 10
13.6256644259
 20
9.5242501782
 30
0.0
 11
13.6256644259
 21
9.7152501782
 31
0.0
  0
LINE
  5
44
100
AcDbEntity
  8
AC-MAB
  6
CONTINUOUS
 62
         7
100
AcDbLine
 10
13.6256644259
 20
9.5242501782
 30
0.0
 11
13.5106644259
 21
9.5242501782
 31
0.0
  0
LINE
  5
45
100
AcDbEntity
  8
AC-MAB
  6
CONTINUOUS
 62
         7
100
AcDbLine
 10
13.5106644259
 20
9.5242501782
 30
0.0
 11
13.5106644259
 21
9.7152501782
 31
0.0
  0
LINE
  5
46
100
AcDbEntity
  8
AC-MAB
  6
CONTINUOUS
 62
         7
100
AcDbLine
 10
11.5406644259
 20
9.5242501782
 30
0.0
 11
11.4256644259
 21
9.5242501782
 31
0.0
  0
LINE
  5
47
100
AcDbEntity
  8
AC-MAB
  6
CONTINUOUS
 62
         7
100
AcDbLine
 10
11.4256644259
 20
9.5242501782
 30
0.0
 11
11.4256644259
 21
9.7152501782
 31
0.0
  0
LINE
  5
48
100
AcDbEntity
  8
AC-MAB
  6
CONTINUOUS
 62
         7
100
AcDbLine
 10
11.5406644259
 20
9.5242501782
 30
0.0
 11
11.5406644259
 21
9.7152501782
 31
0.0
  0
LINE
  5
49
100
AcDbEntity
  8
2A245
  6
CONTINUOUS
 62
         7
100
AcDbLine
 10
12.8681644259
 20
8.7592501782
 30
0.0
 11
11.6581644259
 21
8.7592501782
 31
0.0
  0
LINE
  5
4A
100
AcDbEntity
  8
2A245
  6
CONTINUOUS
 62
         7
100
AcDbLine
 10
11.6581644259
 20
8.7592501782
 30
0.0
 11
11.6581644259
 21
8.8592501782
 31
0.0
  0
LINE
  5
4B
100
AcDbEntity
  8
2A245
  6
CONTINUOUS
 62
         7
100
AcDbLine
 10
11.6581644259
 20
8.8592501782
 30
0.0
 11
11.6581644259
 21
9.0892501782
 31
0.0
  0
LINE
  5
4C
100
AcDbEntity
  8
2A245
  6
CONTINUOUS
 62
         7
100
AcDbLine
 10
12.8681644259
 20
8.8592501782
 30
0.0
 11
12.8681644259
 21
9.0892501782
 31
0.0
  0
LINE
  5
4D
100
AcDbEntity
  8
2A245
  6
CONTINUOUS
 62
         7
100
AcDbLine
 10
12.8681644259
 20
8.7592501782
 30
0.0
 11
12.8681644259
 21
8.8592501782
 31
0.0
  0
LINE
  5
4E
100
AcDbEntity
  8
2A245
  6
CONTINUOUS
 62
         7
100
AcDbLine
 10
13.3831644259
 20
8.8592501782
 30
0.0
 11
13.3831644259
 21
8.7592501782
 31
0.0
  0
LINE
  5
4F
100
AcDbEntity
  8
2A245
  6
CONTINUOUS
 62
         7
100
AcDbLine
 10
12.8681644259
 20
9.0892501782
 30
0.0
 11
11.6581644259
 21
9.0892501782
 31
0.0
  0
LINE
  5
50
100
AcDbEntity
  8
2A245
  6
CONTINUOUS
 62
         7
100
AcDbLine
 10
12.8681644259
 20
8.8592501782
 30
0.0
 11
11.6581644259
 21
8.8592501782
 31
0.0
  0
LINE
  5
51
100
AcDbEntity
  8
2A245
  6
CONTINUOUS
 62
         7
100
AcDbLine
 10
13.3831644259
 20
9.0892501782
 30
0.0
 11
13.3831644259
 21
8.8592501782
 31
0.0
  0
LINE
  5
52
100
AcDbEntity
  8
2A245
  6
CONTINUOUS
 62
         7
100
AcDbLine
 10
12.8681644259
 20
9.0892501782
 30
0.0
 11
13.3831644259
 21
9.0892501782
 31
0.0
  0
LINE
  5
53
100
AcDbEntity
  8
2A245
  6
CONTINUOUS
 62
         7
100
AcDbLine
 10
12.8681644259
 20
8.8592501782
 30
0.0
 11
13.3831644259
 21
8.8592501782
 31
0.0
  0
LINE
  5
54
100
AcDbEntity
  8
2A245
  6
CONTINUOUS
 62
         7
100
AcDbLine
 10
12.8681644259
 20
8.7592501782
 30
0.0
 11
13.3831644259
 21
8.7592501782
 31
0.0
  0
LINE
  5
55
100
AcDbEntity
  8
2A245
  6
CONTINUOUS
 62
         7
100
AcDbLine
 10
11.6631644259
 20
9.2609615539
 30
0.0
 11
11.6631644259
 21
9.2192501782
 31
0.0
  0
LINE
  5
56
100
AcDbEntity
  8
2A245
  6
CONTINUOUS
 62
         7
100
AcDbLine
 10
11.6631644259
 20
9.4892501782
 30
0.0
 11
11.6631644259
 21
9.2609615539
 31
0.0
  0
LINE
  5
57
100
AcDbEntity
  8
2A245
  6
CONTINUOUS
 62
         7
100
AcDbLine
 10
11.6631644259
 20
9.2192501782
 30
0.0
 11
11.6631644259
 21
9.1775388024
 31
0.0
  0
LINE
  5
58
100
AcDbEntity
  8
2A245
  6
CONTINUOUS
 62
         7
100
AcDbLine
 10
11.6631644259
 20
9.1192501782
 30
0.0
 11
11.6631644259
 21
9.0892501782
 31
0.0
  0
LINE
  5
59
100
AcDbEntity
  8
2A245
  6
CONTINUOUS
 62
         7
100
AcDbLine
 10
11.6631644259
 20
9.1775388024
 30
0.0
 11
11.6631644259
 21
9.1192501782
 31
0.0
  0
LINE
  5
5A
100
AcDbEntity
  8
2A245
  6
CONTINUOUS
 62
         7
100
AcDbLine
 10
12.8631644259
 20
9.1192501782
 30
0.0
 11
12.8631644259
 21
9.0892501782
 31
0.0
  0
LINE
  5
5B
100
AcDbEntity
  8
2A245
  6
CONTINUOUS
 62
         7
100
AcDbLine
 10
12.8631644259
 20
9.2609615539
 30
0.0
 11
12.8631644259
 21
9.2192501782
 31
0.0
  0
LINE
  5
5C
100
AcDbEntity
  8
2A245
  6
CONTINUOUS
 62
         7
100
AcDbLine
 10
12.8631644259
 20
9.4892501782
 30
0.0
 11
12.8631644259
 21
9.2609615539
 31
0.0
  0
LINE
  5
5D
100
AcDbEntity
  8
2A245
  6
CONTINUOUS
 62
         7
100
AcDbLine
 10
12.8631644259
 20
9.2192501782
 30
0.0
 11
12.8631644259
 21
9.1775388024
 31
0.0
  0
LINE
  5
5E
100
AcDbEntity
  8
2A245
  6
CONTINUOUS
 62
         7
100
AcDbLine
 10
12.8631644259
 20
9.1775388024
 30
0.0
 11
12.8631644259
 21
9.1192501782
 31
0.0
  0
LINE
  5
5F
100
AcDbEntity
  8
2A245
  6
CONTINUOUS
 62
         7
100
AcDbLine
 10
12.8631644259
 20
9.2609615539
 30
0.0
 11
11.6631644259
 21
9.2609615539
 31
0.0
  0
LINE
  5
60
100
AcDbEntity
  8
2A245
  6
CONTINUOUS
 62
         7
100
AcDbLine
 10
12.8631644259
 20
9.2192501782
 30
0.0
 11
11.6631644259
 21
9.2192501782
 31
0.0
  0
LINE
  5
61
100
AcDbEntity
  8
2A245
  6
CONTINUOUS
 62
         7
100
AcDbLine
 10
12.8631644259
 20
9.1192501782
 30
0.0
 11
11.6631644259
 21
9.1192501782
 31
0.0
  0
LINE
  5
62
100
AcDbEntity
  8
2A245
  6
CONTINUOUS
 62
         7
100
AcDbLine
 10
12.8631644259
 20
9.1775388024
 30
0.0
 11
11.6631644259
 21
9.1775388024
 31
0.0
  0
LINE
  5
63
100
AcDbEntity
  8
2A245
  6
CONTINUOUS
 62
         7
100
AcDbLine
 10
13.3781644259
 20
9.0892501782
 30
0.0
 11
13.3781644259
 21
9.1192501782
 31
0.0
  0
LINE
  5
64
100
AcDbEntity
  8
2A245
  6
CONTINUOUS
 62
         7
100
AcDbLine
 10
13.3781644259
 20
9.1192501782
 30
0.0
 11
13.3781644259
 21
9.1775388024
 31
0.0
  0
LINE
  5
65
100
AcDbEntity
  8
2A245
  6
CONTINUOUS
 62
         7
100
AcDbLine
 10
13.3781644259
 20
9.2192501782
 30
0.0
 11
13.3781644259
 21
9.2609615539
 31
0.0
  0
LINE
  5
66
100
AcDbEntity
  8
2A245
  6
CONTINUOUS
 62
         7
100
AcDbLine
 10
13.3781644259
 20
9.1775388024
 30
0.0
 11
13.3781644259
 21
9.2192501782
 31
0.0
  0
LINE
  5
67
100
AcDbEntity
  8
2A245
  6
CONTINUOUS
 62
         7
100
AcDbLine
 10
13.3781644259
 20
9.2609615539
 30
0.0
 11
13.3781644259
 21
9.4892501782
 31
0.0
  0
LINE
  5
68
100
AcDbEntity
  8
2A245
  6
CONTINUOUS
 62
         7
100
AcDbLine
 10
12.8631644259
 20
9.1192501782
 30
0.0
 11
13.3781644259
 21
9.1192501782
 31
0.0
  0
LINE
  5
69
100
AcDbEntity
  8
2A245
  6
CONTINUOUS
 62
         7
100
AcDbLine
 10
12.8631644259
 20
9.2609615539
 30
0.0
 11
13.3781644259
 21
9.2609615539
 31
0.0
  0
LINE
  5
6A
100
AcDbEntity
  8
2A245
  6
CONTINUOUS
 62
         7
100
AcDbLine
 10
12.8631644259
 20
9.2192501782
 30
0.0
 11
13.3781644259
 21
9.2192501782
 31
0.0
  0
LINE
  5
6B
100
AcDbEntity
  8
2A245
  6
CONTINUOUS
 62
         7
100
AcDbLine
 10
12.8631644259
 20
9.1775388024
 30
0.0
 11
13.3781644259
 21
9.1775388024
 31
0.0
  0
LINE
  5
6C
100
AcDbEntity
  8
2A245
  6
CONTINUOUS
 62
         7
100
AcDbLine
 10
11.6581644259
 20
9.5542501782
 30
0.0
 11
13.3831644259
 21
9.5542501782
 31
0.0
  0
LINE
  5
6D
100
AcDbEntity
  8
2A245
  6
CONTINUOUS
 62
         7
100
AcDbLine
 10
11.6581644259
 20
9.4892501782
 30
0.0
 11
13.3831644259
 21
9.4892501782
 31
0.0
  0
LINE
  5
6E
100
AcDbEntity
  8
2A245
  6
CONTINUOUS
 62
         7
100
AcDbLine
 10
11.6581644259
 20
9.4892501782
 30
0.0
 11
11.6581644259
 21
9.5542501782
 31
0.0
  0
LINE
  5
6F
100
AcDbEntity
  8
2A245
  6
CONTINUOUS
 62
         7
100
AcDbLine
 10
13.3831644259
 20
9.4892501782
 30
0.0
 11
13.3831644259
 21
9.5542501782
 31
0.0
  0
LINE
  5
70
100
AcDbEntity
  8
2A245
  6
CONTINUOUS
 62
         7
100
AcDbLine
 10
11.6512059893
 20
9.5542501782
 30
0.0
 11
11.6581644259
 21
9.5542501782
 31
0.0
  0
LINE
  5
71
100
AcDbEntity
  8
2A245
  6
CONTINUOUS
 62
         7
100
AcDbLine
 10
11.6512059893
 20
9.5542501782
 30
0.0
 11
11.649800963
 21
9.7152501782
 31
0.0
  0
LINE
  5
72
100
AcDbEntity
  8
2A245
  6
CONTINUOUS
 62
         7
100
AcDbLine
 10
13.3831644259
 20
9.5542501782
 30
0.0
 11
13.3901228624
 21
9.5542501782
 31
0.0
  0
LINE
  5
73
100
AcDbEntity
  8
2A245
  6
CONTINUOUS
 62
         7
100
AcDbLine
 10
13.3901228624
 20
9.5542501782
 30
0.0
 11
13.3915278888
 21
9.7152501782
 31
0.0
  0
LINE
  5
74
100
AcDbEntity
  8
939005C
  6
CONTINUOUS
 62
         7
100
AcDbLine
 10
10.8616644259
 20
18.3549216827
 30
0.0
 11
10.8616644259
 21
14.0109216827
 31
0.0
  0
LINE
  5
75
100
AcDbEntity
  8
939005C
  6
CONTINUOUS
 62
         7
100
AcDbLine
 10
10.8616644259
 20
14.0109216827
 30
0.0
 11
14.1796644259
 21
14.0109216827
 31
0.0
  0
LINE
  5
76
100
AcDbEntity
  8
939005C
  6
CONTINUOUS
 62
         7
100
AcDbLine
 10
14.1796644259
 20
14.0109216827
 30
0.0
 11
14.1796644259
 21
18.3549216827
 31
0.0
  0
LINE
  5
77
100
AcDbEntity
  8
939005C
  6
CONTINUOUS
 62
         7
100
AcDbLine
 10
14.1796644259
 20
18.3549216827
 30
0.0
 11
10.8616644259
 21
18.3549216827
 31
0.0
  0
LINE
  5
78
100
AcDbEntity
  8
939005C
  6
CONTINUOUS
 62
         7
100
AcDbLine
 10
14.8956644259
 20
19.0729216827
 30
0.0
 11
14.6456644259
 21
18.8229216827
 31
0.0
  0
LINE
  5
79
100
AcDbEntity
  8
939005C
  6
CONTINUOUS
 62
         7
100
AcDbLine
 10
10.1456644259
 20
19.0729216827
 30
0.0
 11
10.3956644259
 21
18.8229216827
 31
0.0
  0
LINE
  5
7A
100
AcDbEntity
  8
939005C
  6
CONTINUOUS
 62
         7
100
AcDbLine
 10
10.3956644259
 20
13.5429216827
 30
0.0
 11
10.1456644259
 21
13.2929216827
 31
0.0
  0
LINE
  5
7B
100
AcDbEntity
  8
939005C
  6
CONTINUOUS
 62
         7
100
AcDbLine
 10
14.6456644259
 20
13.5429216827
 30
0.0
 11
14.8956644259
 21
13.2929216827
 31
0.0
  0
LINE
  5
7C
100
AcDbEntity
  8
939005C
  6
CONTINUOUS
 62
         7
100
AcDbLine
 10
10.1456644259
 20
13.2929216827
 30
0.0
 11
10.1456644259
 21
19.0729216827
 31
0.0
  0
LINE
  5
7D
100
AcDbEntity
  8
939005C
  6
CONTINUOUS
 62
         7
100
AcDbLine
 10
10.3956644259
 20
18.8229216827
 30
0.0
 11
10.3956644259
 21
13.5429216827
 31
0.0
  0
LINE
  5
7E
100
AcDbEntity
  8
939005C
  6
CONTINUOUS
 62
         7
100
AcDbLine
 10
14.8956644259
 20
19.0729216827
 30
0.0
 11
14.8956644259
 21
13.2929216827
 31
0.0
  0
LINE
  5
7F
100
AcDbEntity
  8
939005C
  6
CONTINUOUS
 62
         7
100
AcDbLine
 10
14.6456644259
 20
13.5429216827
 30
0.0
 11
14.6456644259
 21
18.8229216827
 31
0.0
  0
LINE
  5
80
100
AcDbEntity
  8
939005C
  6
CONTINUOUS
 62
         7
100
AcDbLine
 10
14.6456644259
 20
18.8229216827
 30
0.0
 11
10.3956644259
 21
18.8229216827
 31
0.0
  0
LINE
  5
81
100
AcDbEntity
  8
939005C
  6
CONTINUOUS
 62
         7
100
AcDbLine
 10
10.1456644259
 20
19.0729216827
 30
0.0
 11
14.8956644259
 21
19.0729216827
 31
0.0
  0
LINE
  5
82
100
AcDbEntity
  8
939005C
  6
CONTINUOUS
 62
         7
100
AcDbLine
 10
10.3956644259
 20
13.5429216827
 30
0.0
 11
14.6456644259
 21
13.5429216827
 31
0.0
  0
LINE
  5
83
100
AcDbEntity
  8
939005C
  6
CONTINUOUS
 62
         7
100
AcDbLine
 10
14.8956644259
 20
13.2929216827
 30
0.0
 11
10.1456644259
 21
13.2929216827
 31
0.0
  0
ELLIPSE
  5
84
100
AcDbEntity
  8
939005C
  6
CONTINUOUS
 62
         7
100
AcDbEllipse
 10
12.807983185
 20
14.0729216827
 30
0.0
 11
-0.0876812408671319
 21
0.0
 31
0.0
210
0.0
220
0.0
230
1.0
 40
0.7071067812
 41
1.5707963267948966
 42
2.3293866430050962
  0
ELLIPSE
  5
85
100
AcDbEntity
  8
939005C
  6
CONTINUOUS
 62
         7
100
AcDbEllipse
 10
12.869983185
 20
14.0729216827
 30
0.0
 11
0.0876812408671318
 21
0.0
 31
0.0
210
0.0
220
0.0
230
1.0
 40
0.7071067812
 41
4.7123889803846897
 42
5.4709792965948605
  0
ELLIPSE
  5
86
100
AcDbEntity
  8
939005C
  6
CONTINUOUS
 62
         7
100
AcDbEllipse
 10
12.2333456667
 20
14.0729216827
 30
0.0
 11
-0.0876812408671317
 21
0.0000000000000003
 31
0.0
210
0.0
220
0.0
230
1.0
 40
0.7071067812
 41
0.812206010584729
 42
1.5707963267948988
  0
ELLIPSE
  5
87
100
AcDbEntity
  8
939005C
  6
CONTINUOUS
 62
         7
100
AcDbEllipse
 10
12.1713456667
 20
14.0729216827
 30
0.0
 11
0.0876812408671317
 21
-0.0000000000000003
 31
0.0
210
0.0
220
0.0
230
1.0
 40
0.7071067812
 41
3.953798664174522
 42
4.7123889803846915
  0
ELLIPSE
  5
88
100
AcDbEntity
  8
939005C
  6
CONTINUOUS
 62
         7
100
AcDbEllipse
 10
12.2333456667
 20
18.2929216827
 30
0.0
 11
0.0876812408671317
 21
0.0000000000000003
 31
0.0
210
0.0
220
0.0
230
1.0
 40
0.7071067812
 41
1.5707963267948943
 42
2.3293866430050594
  0
ELLIPSE
  5
89
100
AcDbEntity
  8
939005C
  6
CONTINUOUS
 62
         7
100
AcDbEllipse
 10
12.807983185
 20
18.2929216827
 30
0.0
 11
0.0876812408671319
 21
0.0
 31
0.0
210
0.0
220
0.0
230
1.0
 40
0.7071067812
 41
0.8122060105847461
 42
1.5707963267948966
  0
ELLIPSE
  5
8A
100
AcDbEntity
  8
939005C
  6
CONTINUOUS
 62
         7
100
AcDbEllipse
 10
12.1713456667
 20
18.2929216827
 30
0.0
 11
-0.0876812408671317
 21
-0.0000000000000003
 31
0.0
210
0.0
220
0.0
230
1.0
 40
0.7071067812
 41
4.712388980384687
 42
5.4709792965948374
  0
ELLIPSE
  5
8B
100
AcDbEntity
  8
939005C
  6
CONTINUOUS
 62
         7
100
AcDbEllipse
 10
12.869983185
 20
18.2929216827
 30
0.0
 11
-0.0876812408671319
 21
0.0
 31
0.0
210
0.0
220
0.0
230
1.0
 40
0.7071067812
 41
3.9537986641745388
 42
4.7123889803846897
  0
LINE
  5
8C
100
AcDbEntity
  8
1_000_333
  6
CONTINUOUS
 62
         7
100
AcDbLine
 10
13.3006644259
 20
16.7229216827
 30
0.0
 11
13.2956644259
 21
16.7229216827
 31
0.0
  0
LINE
  5
8D
100
AcDbEntity
  8
1_000_333
  6
CONTINUOUS
 62
         7
100
AcDbLine
 10
11.7456644259
 20
16.7229216827
 30
0.0
 11
11.7406644259
 21
16.7229216827
 31
0.0
  0
LINE
  5
8E
100
AcDbEntity
  8
1_000_333
  6
CONTINUOUS
 62
         7
100
AcDbLine
 10
13.3006644259
 20
15.7629216827
 30
0.0
 11
13.2956644259
 21
15.7629216827
 31
0.0
  0
LINE
  5
8F
100
AcDbEntity
  8
1_000_333
  6
CONTINUOUS
 62
         7
100
AcDbLine
 10
11.7456644259
 20
15.7629216827
 30
0.0
 11
11.7406644259
 21
15.7629216827
 31
0.0
  0
LINE
  5
90
100
AcDbEntity
  8
1_000_333
  6
CONTINUOUS
 62
         7
100
AcDbLine
 10
13.3006644259
 20
14.8029216827
 30
0.0
 11
13.2956644259
 21
14.8029216827
 31
0.0
  0
LINE
  5
91
100
AcDbEntity
  8
1_000_333
  6
CONTINUOUS
 62
         7
100
AcDbLine
 10
11.7456644259
 20
14.8029216827
 30
0.0
 11
11.7406644259
 21
14.8029216827
 31
0.0
  0
LINE
  5
92
100
AcDbEntity
  8
1_000_333
  6
CONTINUOUS
 62
         7
100
AcDbLine
 10
13.1506644259
 20
15.6929216827
 30
0.0
 11
11.8906644259
 21
15.6929216827
 31
0.0
  0
ARC
  5
93
100
AcDbEntity
  8
1_000_333
  6
CONTINUOUS
 62
         7
100
AcDbCircle
 10
11.8906644259
 20
15.5929216827
 30
0.0
 40
0.1
100
AcDbArc
 50
90.0
 51
104.7850452378
  0
ARC
  5
94
100
AcDbEntity
  8
1_000_333
  6
CONTINUOUS
 62
         7
100
AcDbCircle
 10
13.1506644259
 20
15.5929216827
 30
0.0
 40
0.1
100
AcDbArc
 50
75.2149547622
 51
90.0
  0
ARC
  5
95
100
AcDbEntity
  8
1_000_333
  6
CONTINUOUS
 62
         7
100
AcDbCircle
 10
13.1506644259
 20
15.5929216827
 30
0.0
 40
0.1069702376
100
AcDbArc
 50
64.6737900717
 51
90.0
  0
ARC
  5
96
100
AcDbEntity
  8
1_000_333
  6
CONTINUOUS
 62
         7
100
AcDbCircle
 10
11.8906644259
 20
15.5929216827
 30
0.0
 40
0.1069702376
100
AcDbArc
 50
90.0
 51
115.3262099283
  0
LINE
  5
97
100
AcDbEntity
  8
1_000_333
  6
CONTINUOUS
 62
         7
100
AcDbLine
 10
13.1506644259
 20
15.6998919204
 30
0.0
 11
11.8906644259
 21
15.6998919204
 31
0.0
  0
LINE
  5
98
100
AcDbEntity
  8
1_000_333
  6
CONTINUOUS
 62
         7
100
AcDbLine
 10
13.1506644259
 20
16.6529216827
 30
0.0
 11
11.8906644259
 21
16.6529216827
 31
0.0
  0
ARC
  5
99
100
AcDbEntity
  8
1_000_333
  6
CONTINUOUS
 62
         7
100
AcDbCircle
 10
13.1506644259
 20
16.5529216827
 30
0.0
 40
0.1
100
AcDbArc
 50
75.2149547622
 51
90.0
  0
ARC
  5
9A
100
AcDbEntity
  8
1_000_333
  6
CONTINUOUS
 62
         7
100
AcDbCircle
 10
13.1506644259
 20
16.5529216827
 30
0.0
 40
0.1069702376
100
AcDbArc
 50
64.6737900717
 51
90.0
  0
ARC
  5
9B
100
AcDbEntity
  8
1_000_333
  6
CONTINUOUS
 62
         7
100
AcDbCircle
 10
11.8906644259
 20
16.5529216827
 30
0.0
 40
0.1069702376
100
AcDbArc
 50
90.0
 51
115.3262099283
  0
ARC
  5
9C
100
AcDbEntity
  8
1_000_333
  6
CONTINUOUS
 62
         7
100
AcDbCircle
 10
11.8906644259
 20
16.5529216827
 30
0.0
 40
0.1
100
AcDbArc
 50
90.0
 51
104.7850452378
  0
LINE
  5
9D
100
AcDbEntity
  8
1_000_333
  6
CONTINUOUS
 62
         7
100
AcDbLine
 10
13.1506644259
 20
16.6598919204
 30
0.0
 11
11.8906644259
 21
16.6598919204
 31
0.0
  0
ARC
  5
9E
100
AcDbEntity
  8
1_000_333
  6
CONTINUOUS
 62
         7
100
AcDbCircle
 10
13.1506644259
 20
17.5129216827
 30
0.0
 40
0.1
100
AcDbArc
 50
75.2149547622
 51
90.0
  0
ARC
  5
9F
100
AcDbEntity
  8
1_000_333
  6
CONTINUOUS
 62
         7
100
AcDbCircle
 10
13.1506644259
 20
17.5129216827
 30
0.0
 40
0.1069702376
100
AcDbArc
 50
64.6737900717
 51
90.0
  0
LINE
  5
A0
100
AcDbEntity
  8
1_000_333
  6
CONTINUOUS
 62
         7
100
AcDbLine
 10
13.1506644259
 20
17.6129216827
 30
0.0
 11
11.8906644259
 21
17.6129216827
 31
0.0
  0
ARC
  5
A1
100
AcDbEntity
  8
1_000_333
  6
CONTINUOUS
 62
         7
100
AcDbCircle
 10
11.8906644259
 20
17.5129216827
 30
0.0
 40
0.1
100
AcDbArc
 50
90.0
 51
104.7850452378
  0
ARC
  5
A2
100
AcDbEntity
  8
1_000_333
  6
CONTINUOUS
 62
         7
100
AcDbCircle
 10
11.8906644259
 20
17.5129216827
 30
0.0
 40
0.1069702376
100
AcDbArc
 50
90.0
 51
115.3262099283
  0
LINE
  5
A3
100
AcDbEntity
  8
1_000_333
  6
CONTINUOUS
 62
         7
100
AcDbLine
 10
13.1506644259
 20
17.6198919204
 30
0.0
 11
11.8906644259
 21
17.6198919204
 31
0.0
  0
LINE
  5
A4
100
AcDbEntity
  8
1_000_331
  6
CONTINUOUS
 62
         7
100
AcDbLine
 10
14.1656644259
 20
14.0279216827
 30
0.0
 11
14.1656644259
 21
18.3379216827
 31
0.0
  0
LINE
  5
A5
100
AcDbEntity
  8
1_000_331
  6
CONTINUOUS
 62
         7
100
AcDbLine
 10
10.8756644259
 20
18.3379216827
 30
0.0
 11
10.8756644259
 21
14.0279216827
 31
0.0
  0
POLYLINE
  5
A6
100
AcDbEntity
  8
1_000_331
  6
CONTINUOUS
 62
         7
100
AcDb2dPolyline
 66
         1
 10
0.0
 20
0.0
 30
0.0
 70
         4
  0
VERTEX
  5
A7
100
AcDbEntity
  8
1_000_331
  6
CONTINUOUS
 62
         7
100
AcDbVertex
100
AcDb2dVertex
 10
11.7430626935
 20
14.8392857638
 30
0.0
 70
         8
  0
VERTEX
  5
A8
100
AcDbEntity
  8
1_000_331
  6
CONTINUOUS
 62
         7
100
AcDbVertex
100
AcDb2dVertex
 10
11.7441526495
 20
14.8410534966
 30
0.0
 70
         8
  0
VERTEX
  5
A9
100
AcDbEntity
  8
1_000_331
  6
CONTINUOUS
 62
         7
100
AcDbVertex
100
AcDb2dVertex
 10
11.7455348079
 20
14.8425997711
 30
0.0
 70
         8
  0
SEQEND
  5
AA
100
AcDbEntity
  8
1_000_331
  6
CONTINUOUS
 62
         7
  0
ARC
  5
AB
100
AcDbEntity
  8
1_000_331
  6
CONTINUOUS
 62
         7
100
AcDbCircle
 10
13.200206066
 20
16.2338899665
 30
0.0
 40
0.4552133635
100
AcDbArc
 50
59.9884524526
 51
64.1179823996
  0
ARC
  5
AC
100
AcDbEntity
  8
1_000_331
  6
CONTINUOUS
 62
         7
100
AcDbCircle
 10
13.2956644259
 20
17.3694707071
 30
0.0
 40
0.2554799779
100
AcDbArc
 50
39.5882336263
 51
58.8308698967
  0
LINE
  5
AD
100
AcDbEntity
  8
1_000_331
  6
CONTINUOUS
 62
         7
100
AcDbLine
 10
11.6422770993
 20
15.6835737278
 30
0.0
 11
11.6424131724
 21
15.6834430105
 31
0.0
  0
ARC
  5
AE
100
AcDbEntity
  8
1_000_331
  6
CONTINUOUS
 62
         7
100
AcDbCircle
 10
11.7556646989
 20
15.7914214097
 30
0.0
 40
0.0150002731
100
AcDbArc
 50
132.5466843177
 51
140.7075561529
  0
ARC
  5
AF
100
AcDbEntity
  8
1_000_331
  6
CONTINUOUS
 62
         7
100
AcDbCircle
 10
11.7556646989
 20
15.7914214097
 30
0.0
 40
0.0150002731
100
AcDbArc
 50
144.6580240393
 51
179.998453504
  0
ARC
  5
B0
100
AcDbEntity
  8
1_000_331
  6
CONTINUOUS
 62
         7
100
AcDbCircle
 10
11.7556646989
 20
15.9214219558
 30
0.0
 40
0.0150002731
100
AcDbArc
 50
180.001546496
 51
227.4533156823
  0
ARC
  5
B1
100
AcDbEntity
  8
1_000_331
  6
CONTINUOUS
 62
         7
100
AcDbCircle
 10
11.7556646989
 20
16.8814219558
 30
0.0
 40
0.0150002731
100
AcDbArc
 50
180.001546496
 51
227.4533156823
  0
ARC
  5
B2
100
AcDbEntity
  8
1_000_331
  6
CONTINUOUS
 62
         7
100
AcDbCircle
 10
11.7556646989
 20
16.7514214097
 30
0.0
 40
0.0150002731
100
AcDbArc
 50
132.5466843177
 51
140.7075561529
  0
ARC
  5
B3
100
AcDbEntity
  8
1_000_331
  6
CONTINUOUS
 62
         7
100
AcDbCircle
 10
11.7556646989
 20
16.7514214097
 30
0.0
 40
0.0150002731
100
AcDbArc
 50
144.6580240393
 51
179.998453504
  0
ARC
  5
B4
100
AcDbEntity
  8
1_000_331
  6
CONTINUOUS
 62
         7
100
AcDbCircle
 10
13.2856641528
 20
16.7514214097
 30
0.0
 40
0.0150002731
100
AcDbArc
 50
0.001546496
 51
47.4533156823
  0
ARC
  5
B5
100
AcDbEntity
  8
1_000_331
  6
CONTINUOUS
 62
         7
100
AcDbCircle
 10
13.2856641528
 20
16.8814219558
 30
0.0
 40
0.0150002731
100
AcDbArc
 50
324.6580240393
 51
359.998453504
  0
ARC
  5
B6
100
AcDbEntity
  8
1_000_331
  6
CONTINUOUS
 62
         7
100
AcDbCircle
 10
13.2856641528
 20
15.7914214097
 30
0.0
 40
0.0150002731
100
AcDbArc
 50
0.001546496
 51
47.4533156823
  0
ARC
  5
B7
100
AcDbEntity
  8
1_000_331
  6
CONTINUOUS
 62
         7
100
AcDbCircle
 10
13.2856641528
 20
15.9214219558
 30
0.0
 40
0.0150002731
100
AcDbArc
 50
324.6580240393
 51
359.998453504
  0
ARC
  5
B8
100
AcDbEntity
  8
1_000_331
  6
CONTINUOUS
 62
         7
100
AcDbCircle
 10
13.2856641528
 20
14.8314214097
 30
0.0
 40
0.0150002731
100
AcDbArc
 50
0.001546496
 51
47.4533156823
  0
ARC
  5
B9
100
AcDbEntity
  8
1_000_331
  6
CONTINUOUS
 62
         7
100
AcDbCircle
 10
13.2856641528
 20
14.9614219558
 30
0.0
 40
0.0150002731
100
AcDbArc
 50
324.6580240393
 51
359.998453504
  0
ARC
  5
BA
100
AcDbEntity
  8
1_000_331
  6
CONTINUOUS
 62
         7
100
AcDbCircle
 10
11.7556646989
 20
14.9614219558
 30
0.0
 40
0.0150002731
100
AcDbArc
 50
180.001546496
 51
227.4533156823
  0
ARC
  5
BB
100
AcDbEntity
  8
1_000_331
  6
CONTINUOUS
 62
         7
100
AcDbCircle
 10
11.7556646989
 20
14.8314214097
 30
0.0
 40
0.0150002731
100
AcDbArc
 50
132.5466843177
 51
140.7075561529
  0
ARC
  5
BC
100
AcDbEntity
  8
1_000_331
  6
CONTINUOUS
 62
         7
100
AcDbCircle
 10
11.7556646989
 20
14.8314214097
 30
0.0
 40
0.0150002731
100
AcDbArc
 50
144.6580240393
 51
179.998453504
  0
LINE
  5
BD
100
AcDbEntity
  8
1_000_331
  6
CONTINUOUS
 62
         7
100
AcDbLine
 10
14.1656644259
 20
18.3379216827
 30
0.0
 11
10.8756644259
 21
18.3379216827
 31
0.0
  0
LINE
  5
BE
100
AcDbEntity
  8
1_000_331
  6
CONTINUOUS
 62
         7
100
AcDbLine
 10
10.8756644259
 20
14.0279216827
 30
0.0
 11
14.1656644259
 21
14.0279216827
 31
0.0
  0
CIRCLE
  5
BF
100
AcDbEntity
  8
1_000_331
  6
CONTINUOUS
 62
         7
100
AcDbCircle
 10
11.1786644259
 20
18.0089216827
 30
0.0
 40
0.1715
  0
CIRCLE
  5
C0
100
AcDbEntity
  8
1_000_331
  6
CONTINUOUS
 62
         7
100
AcDbCircle
 10
13.8626644259
 20
18.0089216827
 30
0.0
 40
0.1715
  0
CIRCLE
  5
C1
100
AcDbEntity
  8
1_000_331
  6
CONTINUOUS
 62
         7
100
AcDbCircle
 10
11.1786644259
 20
14.3569216827
 30
0.0
 40
0.1715
  0
CIRCLE
  5
C2
100
AcDbEntity
  8
1_000_331
  6
CONTINUOUS
 62
         7
100
AcDbCircle
 10
13.8626644259
 20
14.3569216827
 30
0.0
 40
0.1715
  0
LINE
  5
C3
100
AcDbEntity
  8
1_000_331
  6
CONTINUOUS
 62
         7
100
AcDbLine
 10
11.7234571384
 20
17.6244216827
 30
0.0
 11
11.7393117608
 21
17.6244216827
 31
0.0
  0
LINE
  5
C4
100
AcDbEntity
  8
1_000_331
  6
CONTINUOUS
 62
         7
100
AcDbLine
 10
13.302017091
 20
14.9875539024
 30
0.0
 11
13.302017091
 21
14.7400690182
 31
0.0
  0
ARC
  5
C5
100
AcDbEntity
  8
1_000_331
  6
CONTINUOUS
 62
         7
100
AcDbCircle
 10
11.6802310222
 20
14.9882957059
 30
0.0
 40
0.0599970601
100
AcDbArc
 50
0.0
 51
78.0112267319
  0
ARC
  5
C6
100
AcDbEntity
  8
1_000_331
  6
CONTINUOUS
 62
         7
100
AcDbCircle
 10
11.6802310222
 20
15.9482957059
 30
0.0
 40
0.0599970601
100
AcDbArc
 50
0.0
 51
78.0112267319
  0
ARC
  5
C7
100
AcDbEntity
  8
1_000_331
  6
CONTINUOUS
 62
         7
100
AcDbCircle
 10
11.6793146979
 20
15.9475544296
 30
0.0
 40
0.0599970629
100
AcDbArc
 50
0.0
 51
77.8765869279
  0
ARC
  5
C8
100
AcDbEntity
  8
1_000_331
  6
CONTINUOUS
 62
         7
100
AcDbCircle
 10
11.6793146979
 20
14.9875544296
 30
0.0
 40
0.0599970629
100
AcDbArc
 50
0.0
 51
77.8765869279
  0
ARC
  5
C9
100
AcDbEntity
  8
1_000_331
  6
CONTINUOUS
 62
         7
100
AcDbCircle
 10
13.3620141539
 20
16.9075544296
 30
0.0
 40
0.0599970629
100
AcDbArc
 50
102.1234130721
 51
180.00050346
  0
ARC
  5
CA
100
AcDbEntity
  8
1_000_331
  6
CONTINUOUS
 62
         7
100
AcDbCircle
 10
13.3620141539
 20
14.9875544296
 30
0.0
 40
0.0599970629
100
AcDbArc
 50
102.1234130721
 51
180.00050346
  0
ARC
  5
CB
100
AcDbEntity
  8
1_000_331
  6
CONTINUOUS
 62
         7
100
AcDbCircle
 10
11.6793146979
 20
16.9075544296
 30
0.0
 40
0.0599970629
100
AcDbArc
 50
0.0
 51
77.8765869279
  0
LINE
  5
CC
100
AcDbEntity
  8
1_000_331
  6
CONTINUOUS
 62
         7
100
AcDbLine
 10
13.3011007694
 20
15.7044127518
 30
0.0
 11
13.302017091
 21
15.7053081696
 31
0.0
  0
LINE
  5
CD
100
AcDbEntity
  8
1_000_331
  6
CONTINUOUS
 62
         7
100
AcDbLine
 10
13.3011007694
 20
16.6644127518
 30
0.0
 11
13.302017091
 21
16.6653081696
 31
0.0
  0
ARC
  5
CE
100
AcDbEntity
  8
1_000_331
  6
CONTINUOUS
 62
         7
100
AcDbCircle
 10
13.3610978296
 20
15.9482957059
 30
0.0
 40
0.0599970601
100
AcDbArc
 50
101.9887732682
 51
180.0005068167
  0
LINE
  5
CF
100
AcDbEntity
  8
1_000_331
  6
CONTINUOUS
 62
         7
100
AcDbLine
 10
13.301109893
 20
17.6244216827
 30
0.0
 11
13.3011007694
 21
17.6244127518
 31
0.0
  0
ARC
  5
D0
100
AcDbEntity
  8
1_000_331
  6
CONTINUOUS
 62
         7
100
AcDbCircle
 10
13.3620141539
 20
15.9475544296
 30
0.0
 40
0.0599970629
100
AcDbArc
 50
102.1234130721
 51
180.00050346
  0
LINE
  5
D1
100
AcDbEntity
  8
1_000_331
  6
CONTINUOUS
 62
         7
100
AcDbLine
 10
11.7406644259
 20
16.7514218145
 30
0.0
 11
11.7406644259
 21
16.6495585967
 31
0.0
  0
LINE
  5
D2
100
AcDbEntity
  8
1_000_331
  6
CONTINUOUS
 62
         7
100
AcDbLine
 10
11.7406644259
 20
16.0596627747
 30
0.0
 11
11.7406644259
 21
15.9214215509
 31
0.0
  0
LINE
  5
D3
100
AcDbEntity
  8
1_000_331
  6
CONTINUOUS
 62
         7
100
AcDbLine
 10
11.7406644259
 20
15.7914218145
 30
0.0
 11
11.7406644259
 21
15.6895585967
 31
0.0
  0
LINE
  5
D4
100
AcDbEntity
  8
1_000_331
  6
CONTINUOUS
 62
         7
100
AcDbLine
 10
11.7406644259
 20
15.0996627747
 30
0.0
 11
11.7406644259
 21
14.9614215509
 31
0.0
  0
LINE
  5
D5
100
AcDbEntity
  8
1_000_331
  6
CONTINUOUS
 62
         7
100
AcDbLine
 10
11.7406644259
 20
17.6244216827
 30
0.0
 11
11.7406644259
 21
17.6095585967
 31
0.0
  0
LINE
  5
D6
100
AcDbEntity
  8
1_000_331
  6
CONTINUOUS
 62
         7
100
AcDbLine
 10
11.7406644259
 20
17.0196627747
 30
0.0
 11
11.7406644259
 21
16.8814215509
 31
0.0
  0
LINE
  5
D7
100
AcDbEntity
  8
1_000_331
  6
CONTINUOUS
 62
         7
100
AcDbLine
 10
11.7406644259
 20
14.8314218145
 30
0.0
 11
11.7406644259
 21
14.7414216827
 31
0.0
  0
LINE
  5
D8
100
AcDbEntity
  8
1_000_331
  6
CONTINUOUS
 62
         7
100
AcDbLine
 10
13.3006644259
 20
16.8814215509
 30
0.0
 11
13.3006644259
 21
17.0196627747
 31
0.0
  0
LINE
  5
D9
100
AcDbEntity
  8
1_000_331
  6
CONTINUOUS
 62
         7
100
AcDbLine
 10
13.3006644259
 20
17.6095585967
 30
0.0
 11
13.3006644259
 21
17.6244216827
 31
0.0
  0
LINE
  5
DA
100
AcDbEntity
  8
1_000_331
  6
CONTINUOUS
 62
         7
100
AcDbLine
 10
13.3006644259
 20
15.9214215509
 30
0.0
 11
13.3006644259
 21
16.0596627747
 31
0.0
  0
LINE
  5
DB
100
AcDbEntity
  8
1_000_331
  6
CONTINUOUS
 62
         7
100
AcDbLine
 10
13.3006644259
 20
16.6495585967
 30
0.0
 11
13.3006644259
 21
16.7514218145
 31
0.0
  0
LINE
  5
DC
100
AcDbEntity
  8
1_000_331
  6
CONTINUOUS
 62
         7
100
AcDbLine
 10
13.3006644259
 20
14.7414216827
 30
0.0
 11
13.3006644259
 21
14.8314218145
 31
0.0
  0
LINE
  5
DD
100
AcDbEntity
  8
1_000_331
  6
CONTINUOUS
 62
         7
100
AcDbLine
 10
13.3006644259
 20
14.9614215509
 30
0.0
 11
13.3006644259
 21
15.0996627747
 31
0.0
  0
LINE
  5
DE
100
AcDbEntity
  8
1_000_331
  6
CONTINUOUS
 62
         7
100
AcDbLine
 10
13.3006644259
 20
15.6895585967
 30
0.0
 11
13.3006644259
 21
15.7914218145
 31
0.0
  0
ARC
  5
DF
100
AcDbEntity
  8
1_000_331
  6
CONTINUOUS
 62
         7
100
AcDbCircle
 10
13.200206066
 20
17.1938899665
 30
0.0
 40
0.4552133635
100
AcDbArc
 50
59.9884524526
 51
64.1179823996
  0
ARC
  5
E0
100
AcDbEntity
  8
1_000_331
  6
CONTINUOUS
 62
         7
100
AcDbCircle
 10
13.2448375301
 20
17.3295109953
 30
0.0
 40
0.3201183584
100
AcDbArc
 50
33.4291081596
 51
39.3026609194
  0
ARC
  5
E1
100
AcDbEntity
  8
1_000_331
  6
CONTINUOUS
 62
         7
100
AcDbCircle
 10
11.7456644259
 20
17.3694707071
 30
0.0
 40
0.2554799779
100
AcDbArc
 50
121.1691301033
 51
140.4117663737
  0
LINE
  5
E2
100
AcDbEntity
  8
1_000_331
  6
CONTINUOUS
 62
         7
100
AcDbLine
 10
13.3989156794
 20
17.6034430105
 30
0.0
 11
13.3990517524
 21
17.6035737278
 31
0.0
  0
LINE
  5
E3
100
AcDbEntity
  8
1_000_331
  6
CONTINUOUS
 62
         7
100
AcDbLine
 10
13.5121074176
 20
17.5060195809
 30
0.0
 11
13.5119980318
 21
17.5058658356
 31
0.0
  0
ARC
  5
E4
100
AcDbEntity
  8
1_000_331
  6
CONTINUOUS
 62
         7
100
AcDbCircle
 10
13.2956644259
 20
17.3694707071
 30
0.0
 40
0.255
100
AcDbArc
 50
11.364876967
 51
88.7784190498
  0
ARC
  5
E5
100
AcDbEntity
  8
1_000_331
  6
CONTINUOUS
 62
         7
100
AcDbCircle
 10
11.7456644259
 20
17.3694707071
 30
0.0
 40
0.255
100
AcDbArc
 50
91.2215809502
 51
168.635123033
  0
ARC
  5
E6
100
AcDbEntity
  8
1_000_331
  6
CONTINUOUS
 62
         7
100
AcDbCircle
 10
13.2956644259
 20
15.4494707071
 30
0.0
 40
0.2559163215
100
AcDbArc
 50
12.3439673776
 51
32.246878912
  0
LINE
  5
E7
100
AcDbEntity
  8
1_000_331
  6
CONTINUOUS
 62
         7
100
AcDbLine
 10
13.302017091
 20
17.6257743472
 30
0.0
 11
13.302017091
 21
17.6244216827
 31
0.0
  0
LINE
  5
E8
100
AcDbEntity
  8
1_000_331
  6
CONTINUOUS
 62
         7
100
AcDbLine
 10
13.302017091
 20
17.6257743472
 30
0.0
 11
11.7393117608
 21
17.6257743472
 31
0.0
  0
LINE
  5
E9
100
AcDbEntity
  8
1_000_331
  6
CONTINUOUS
 62
         7
100
AcDbLine
 10
13.3006644259
 20
17.6244216827
 30
0.0
 11
11.7406644259
 21
17.6244216827
 31
0.0
  0
LINE
  5
EA
100
AcDbEntity
  8
1_000_331
  6
CONTINUOUS
 62
         7
100
AcDbLine
 10
11.7393117608
 20
16.6653081696
 30
0.0
 11
11.7393117608
 21
16.9075539024
 31
0.0
  0
LINE
  5
EB
100
AcDbEntity
  8
1_000_331
  6
CONTINUOUS
 62
         7
100
AcDbLine
 10
11.7393117608
 20
17.6257743472
 30
0.0
 11
11.7393117608
 21
17.6244216827
 31
0.0
  0
LINE
  5
EC
100
AcDbEntity
  8
1_000_331
  6
CONTINUOUS
 62
         7
100
AcDbLine
 10
13.302017091
 20
17.6244216827
 30
0.0
 11
13.301109893
 21
17.6244216827
 31
0.0
  0
LINE
  5
ED
100
AcDbEntity
  8
1_000_331
  6
CONTINUOUS
 62
         7
100
AcDbLine
 10
13.302017091
 20
15.9475539024
 30
0.0
 11
13.302017091
 21
15.7053081696
 31
0.0
  0
LINE
  5
EE
100
AcDbEntity
  8
1_000_331
  6
CONTINUOUS
 62
         7
100
AcDbLine
 10
13.302017091
 20
16.9075539024
 30
0.0
 11
13.302017091
 21
16.6653081696
 31
0.0
  0
LINE
  5
EF
100
AcDbEntity
  8
1_000_331
  6
CONTINUOUS
 62
         7
100
AcDbLine
 10
13.3011007694
 20
16.9082951752
 30
0.0
 11
13.3011007694
 21
17.0196722641
 31
0.0
  0
LINE
  5
F0
100
AcDbEntity
  8
1_000_331
  6
CONTINUOUS
 62
         7
100
AcDbLine
 10
13.3011007694
 20
17.6095491073
 30
0.0
 11
13.3011007694
 21
17.6244127518
 31
0.0
  0
ARC
  5
F1
100
AcDbEntity
  8
1_000_331
  6
CONTINUOUS
 62
         7
100
AcDbCircle
 10
13.2956644259
 20
17.2164216827
 30
0.0
 40
0.2559163215
100
AcDbArc
 50
282.1239165321
 51
347.6560326224
  0
LINE
  5
F2
100
AcDbEntity
  8
1_000_331
  6
CONTINUOUS
 62
         7
100
AcDbLine
 10
13.3006644259
 20
17.6244216827
 30
0.0
 11
13.302017091
 21
17.6257743472
 31
0.0
  0
LINE
  5
F3
100
AcDbEntity
  8
1_000_331
  6
CONTINUOUS
 62
         7
100
AcDbLine
 10
11.7393117608
 20
15.7053081696
 30
0.0
 11
11.7393117608
 21
15.9475539024
 31
0.0
  0
ARC
  5
F4
100
AcDbEntity
  8
1_000_331
  6
CONTINUOUS
 62
         7
100
AcDbCircle
 10
13.2956644259
 20
16.4094707071
 30
0.0
 40
0.255
100
AcDbArc
 50
11.364876967
 51
88.7784190498
  0
LINE
  5
F5
100
AcDbEntity
  8
1_000_331
  6
CONTINUOUS
 62
         7
100
AcDbLine
 10
13.5456644259
 20
16.4641805198
 30
0.0
 11
13.5456644259
 21
16.2017118699
 31
0.0
  0
LINE
  5
F6
100
AcDbEntity
  8
1_000_331
  6
CONTINUOUS
 62
         7
100
AcDbLine
 10
13.3011007694
 20
15.9482951752
 30
0.0
 11
13.3011007694
 21
16.0596722641
 31
0.0
  0
LINE
  5
F7
100
AcDbEntity
  8
1_000_331
  6
CONTINUOUS
 62
         7
100
AcDbLine
 10
13.3011007694
 20
16.6495491073
 30
0.0
 11
13.3011007694
 21
16.6644127518
 31
0.0
  0
ARC
  5
F8
100
AcDbEntity
  8
1_000_331
  6
CONTINUOUS
 62
         7
100
AcDbCircle
 10
13.2956644259
 20
16.2564216827
 30
0.0
 40
0.2559163215
100
AcDbArc
 50
282.1239165321
 51
347.6560326224
  0
ARC
  5
F9
100
AcDbEntity
  8
1_000_331
  6
CONTINUOUS
 62
         7
100
AcDbCircle
 10
13.2956644259
 20
15.4494707071
 30
0.0
 40
0.255
100
AcDbArc
 50
11.364876967
 51
88.7784190498
  0
ARC
  5
FA
100
AcDbEntity
  8
1_000_331
  6
CONTINUOUS
 62
         7
100
AcDbCircle
 10
13.2956644259
 20
15.2964216827
 30
0.0
 40
0.255
100
AcDbArc
 50
281.9892800849
 51
348.635123033
  0
LINE
  5
FB
100
AcDbEntity
  8
1_000_331
  6
CONTINUOUS
 62
         7
100
AcDbLine
 10
13.5456644259
 20
15.5041805198
 30
0.0
 11
13.5456644259
 21
15.2417118699
 31
0.0
  0
ARC
  5
FC
100
AcDbEntity
  8
1_000_331
  6
CONTINUOUS
 62
         7
100
AcDbCircle
 10
13.2956644259
 20
15.4494707071
 30
0.0
 40
0.2559163215
100
AcDbArc
 50
66.172224611
 51
88.5775886168
  0
ARC
  5
FD
100
AcDbEntity
  8
1_000_331
  6
CONTINUOUS
 62
         7
100
AcDbCircle
 10
13.2956644259
 20
16.4094707071
 30
0.0
 40
0.2559163215
100
AcDbArc
 50
66.172224611
 51
88.5775886168
  0
LINE
  5
FE
100
AcDbEntity
  8
1_000_331
  6
CONTINUOUS
 62
         7
100
AcDbLine
 10
13.3011007694
 20
14.9882951752
 30
0.0
 11
13.3011007694
 21
15.0996722641
 31
0.0
  0
LINE
  5
FF
100
AcDbEntity
  8
1_000_331
  6
CONTINUOUS
 62
         7
100
AcDbLine
 10
13.3011007694
 20
15.6895491073
 30
0.0
 11
13.3011007694
 21
15.7044127518
 31
0.0
  0
ARC
  5
100
100
AcDbEntity
  8
1_000_331
  6
CONTINUOUS
 62
         7
100
AcDbCircle
 10
13.2956644259
 20
16.2564216827
 30
0.0
 40
0.255
100
AcDbArc
 50
281.9892800849
 51
348.635123033
  0
ARC
  5
101
100
AcDbEntity
  8
1_000_331
  6
CONTINUOUS
 62
         7
100
AcDbCircle
 10
13.2956644259
 20
15.2964216827
 30
0.0
 40
0.2559163215
100
AcDbArc
 50
282.1239165321
 51
347.6560326224
  0
LINE
  5
102
100
AcDbEntity
  8
1_000_331
  6
CONTINUOUS
 62
         7
100
AcDbLine
 10
13.3006644259
 20
14.7414216827
 30
0.0
 11
11.7406644259
 21
14.7414216827
 31
0.0
  0
LINE
  5
103
100
AcDbEntity
  8
1_000_331
  6
CONTINUOUS
 62
         7
100
AcDbLine
 10
11.7393117608
 20
14.7400690182
 30
0.0
 11
11.7406644259
 21
14.7414216827
 31
0.0
  0
LINE
  5
104
100
AcDbEntity
  8
1_000_331
  6
CONTINUOUS
 62
         7
100
AcDbLine
 10
11.7402280823
 20
15.7044127518
 30
0.0
 11
11.7402280823
 21
15.6895491073
 31
0.0
  0
LINE
  5
105
100
AcDbEntity
  8
1_000_331
  6
CONTINUOUS
 62
         7
100
AcDbLine
 10
11.7402280823
 20
15.0996722641
 30
0.0
 11
11.7402280823
 21
14.9882951752
 31
0.0
  0
LINE
  5
106
100
AcDbEntity
  8
1_000_331
  6
CONTINUOUS
 62
         7
100
AcDbLine
 10
11.4956644259
 20
15.2417118699
 30
0.0
 11
11.4956644259
 21
15.5041805198
 31
0.0
  0
ARC
  5
107
100
AcDbEntity
  8
1_000_331
  6
CONTINUOUS
 62
         7
100
AcDbCircle
 10
11.7456644259
 20
15.4494707071
 30
0.0
 40
0.2559163215
100
AcDbArc
 50
147.753121088
 51
167.6560326224
  0
ARC
  5
108
100
AcDbEntity
  8
1_000_331
  6
CONTINUOUS
 62
         7
100
AcDbCircle
 10
11.7456644259
 20
15.4494707071
 30
0.0
 40
0.255
100
AcDbArc
 50
91.2215809502
 51
168.635123033
  0
LINE
  5
109
100
AcDbEntity
  8
1_000_331
  6
CONTINUOUS
 62
         7
100
AcDbLine
 10
13.302017091
 20
14.7400690182
 30
0.0
 11
11.7393117608
 21
14.7400690182
 31
0.0
  0
LINE
  5
10A
100
AcDbEntity
  8
1_000_331
  6
CONTINUOUS
 62
         7
100
AcDbLine
 10
13.302017091
 20
14.7400690182
 30
0.0
 11
13.3006644259
 21
14.7414216827
 31
0.0
  0
ARC
  5
10B
100
AcDbEntity
  8
1_000_331
  6
CONTINUOUS
 62
         7
100
AcDbCircle
 10
11.7456644259
 20
15.2964216827
 30
0.0
 40
0.2559163215
100
AcDbArc
 50
192.3439673776
 51
257.8760834679
  0
ARC
  5
10C
100
AcDbEntity
  8
1_000_331
  6
CONTINUOUS
 62
         7
100
AcDbCircle
 10
11.7456644259
 20
15.2964216827
 30
0.0
 40
0.255
100
AcDbArc
 50
191.364876967
 51
258.0107199151
  0
LINE
  5
10D
100
AcDbEntity
  8
1_000_331
  6
CONTINUOUS
 62
         7
100
AcDbLine
 10
11.7402280823
 20
16.6644127518
 30
0.0
 11
11.7402280823
 21
16.6495491073
 31
0.0
  0
LINE
  5
10E
100
AcDbEntity
  8
1_000_331
  6
CONTINUOUS
 62
         7
100
AcDbLine
 10
11.7402280823
 20
16.0596722641
 30
0.0
 11
11.7402280823
 21
15.9482951752
 31
0.0
  0
LINE
  5
10F
100
AcDbEntity
  8
1_000_331
  6
CONTINUOUS
 62
         7
100
AcDbLine
 10
11.4956644259
 20
16.2017118699
 30
0.0
 11
11.4956644259
 21
16.4641805198
 31
0.0
  0
ARC
  5
110
100
AcDbEntity
  8
1_000_331
  6
CONTINUOUS
 62
         7
100
AcDbCircle
 10
11.7456644259
 20
16.2564216827
 30
0.0
 40
0.2559163215
100
AcDbArc
 50
192.3439673776
 51
257.8760834679
  0
ARC
  5
111
100
AcDbEntity
  8
1_000_331
  6
CONTINUOUS
 62
         7
100
AcDbCircle
 10
11.7456644259
 20
16.2564216827
 30
0.0
 40
0.255
100
AcDbArc
 50
191.364876967
 51
258.0107199151
  0
ARC
  5
112
100
AcDbEntity
  8
1_000_331
  6
CONTINUOUS
 62
         7
100
AcDbCircle
 10
11.7456644259
 20
15.4494707071
 30
0.0
 40
0.2559163215
100
AcDbArc
 50
91.4224113832
 51
113.827775389
  0
ARC
  5
113
100
AcDbEntity
  8
1_000_331
  6
CONTINUOUS
 62
         7
100
AcDbCircle
 10
11.7456644259
 20
16.4094707071
 30
0.0
 40
0.2559163215
100
AcDbArc
 50
147.753121088
 51
167.6560326224
  0
ARC
  5
114
100
AcDbEntity
  8
1_000_331
  6
CONTINUOUS
 62
         7
100
AcDbCircle
 10
11.7456644259
 20
16.4094707071
 30
0.0
 40
0.255
100
AcDbArc
 50
91.2215809502
 51
168.635123033
  0
ARC
  5
115
100
AcDbEntity
  8
1_000_331
  6
CONTINUOUS
 62
         7
100
AcDbCircle
 10
11.7456644259
 20
16.4094707071
 30
0.0
 40
0.2559163215
100
AcDbArc
 50
91.4224113832
 51
113.827775389
  0
LINE
  5
116
100
AcDbEntity
  8
1_000_331
  6
CONTINUOUS
 62
         7
100
AcDbLine
 10
11.7402280823
 20
17.6244127518
 30
0.0
 11
11.7402280823
 21
17.6095491073
 31
0.0
  0
LINE
  5
117
100
AcDbEntity
  8
1_000_331
  6
CONTINUOUS
 62
         7
100
AcDbLine
 10
11.7402280823
 20
17.0196722641
 30
0.0
 11
11.7402280823
 21
16.9082951752
 31
0.0
  0
LINE
  5
118
100
AcDbEntity
  8
1_000_331
  6
CONTINUOUS
 62
         7
100
AcDbLine
 10
11.4956644259
 20
17.1617118699
 30
0.0
 11
11.4956644259
 21
17.4241805198
 31
0.0
  0
ARC
  5
119
100
AcDbEntity
  8
1_000_331
  6
CONTINUOUS
 62
         7
100
AcDbCircle
 10
11.7456644259
 20
17.3694707071
 30
0.0
 40
0.2559163215
100
AcDbArc
 50
147.753121088
 51
167.6560326224
  0
ARC
  5
11A
100
AcDbEntity
  8
1_000_331
  6
CONTINUOUS
 62
         7
100
AcDbCircle
 10
11.7456644259
 20
17.2164216827
 30
0.0
 40
0.2559163215
100
AcDbArc
 50
192.3439673776
 51
257.8760834679
  0
ARC
  5
11B
100
AcDbEntity
  8
1_000_331
  6
CONTINUOUS
 62
         7
100
AcDbCircle
 10
11.7456644259
 20
17.2164216827
 30
0.0
 40
0.255
100
AcDbArc
 50
191.364876967
 51
258.0107199151
  0
LINE
  5
11C
100
AcDbEntity
  8
1_000_331
  6
CONTINUOUS
 62
         7
100
AcDbLine
 10
11.7402280823
 20
15.7044127518
 30
0.0
 11
11.7393117608
 21
15.7053081696
 31
0.0
  0
LINE
  5
11D
100
AcDbEntity
  8
1_000_331
  6
CONTINUOUS
 62
         7
100
AcDbLine
 10
11.7393117608
 20
17.6244216827
 30
0.0
 11
11.7402189587
 21
17.6244216827
 31
0.0
  0
LINE
  5
11E
100
AcDbEntity
  8
1_000_331
  6
CONTINUOUS
 62
         7
100
AcDbLine
 10
11.7406644259
 20
17.6244216827
 30
0.0
 11
11.7393117608
 21
17.6257743472
 31
0.0
  0
LINE
  5
11F
100
AcDbEntity
  8
1_000_331
  6
CONTINUOUS
 62
         7
100
AcDbLine
 10
11.7402280823
 20
17.6244127518
 30
0.0
 11
11.7402189587
 21
17.6244216827
 31
0.0
  0
ARC
  5
120
100
AcDbEntity
  8
1_000_331
  6
CONTINUOUS
 62
         7
100
AcDbCircle
 10
13.4509415974
 20
17.5494216827
 30
0.0
 40
0.075
100
AcDbArc
 50
324.6412135742
 51
133.7778899488
  0
ARC
  5
121
100
AcDbEntity
  8
1_000_331
  6
CONTINUOUS
 62
         7
100
AcDbCircle
 10
11.5903872543
 20
15.6294216827
 30
0.0
 40
0.075
100
AcDbArc
 50
46.2221100512
 51
215.3587864258
  0
ARC
  5
122
100
AcDbEntity
  8
1_000_331
  6
CONTINUOUS
 62
         7
100
AcDbCircle
 10
11.7456644259
 20
15.4494707071
 30
0.0
 40
0.2554799779
100
AcDbArc
 50
121.1691301033
 51
140.4117663737
  0
LINE
  5
123
100
AcDbEntity
  8
1_000_331
  6
CONTINUOUS
 62
         7
100
AcDbLine
 10
13.3989156794
 20
15.6834430105
 30
0.0
 11
13.3990517524
 21
15.6835737278
 31
0.0
  0
ARC
  5
124
100
AcDbEntity
  8
1_000_331
  6
CONTINUOUS
 62
         7
100
AcDbCircle
 10
13.2448375301
 20
15.4095109953
 30
0.0
 40
0.3201183584
100
AcDbArc
 50
33.4291081596
 51
39.3026609194
  0
ARC
  5
125
100
AcDbEntity
  8
1_000_331
  6
CONTINUOUS
 62
         7
100
AcDbCircle
 10
11.5903872543
 20
17.5494216827
 30
0.0
 40
0.075
100
AcDbArc
 50
46.2221100512
 51
215.3587864258
  0
ARC
  5
126
100
AcDbEntity
  8
1_000_331
  6
CONTINUOUS
 62
         7
100
AcDbCircle
 10
13.4509415974
 20
15.6294216827
 30
0.0
 40
0.075
100
AcDbArc
 50
324.6412135742
 51
133.7778899488
  0
ARC
  5
127
100
AcDbEntity
  8
1_000_331
  6
CONTINUOUS
 62
         7
100
AcDbCircle
 10
13.4509415974
 20
16.5894216827
 30
0.0
 40
0.075
100
AcDbArc
 50
324.6412135742
 51
133.7778899488
  0
LINE
  5
128
100
AcDbEntity
  8
1_000_331
  6
CONTINUOUS
 62
         7
100
AcDbLine
 10
13.3989156794
 20
16.6434430105
 30
0.0
 11
13.3990517524
 21
16.6435737278
 31
0.0
  0
ARC
  5
129
100
AcDbEntity
  8
1_000_331
  6
CONTINUOUS
 62
         7
100
AcDbCircle
 10
13.2448375301
 20
16.3695109953
 30
0.0
 40
0.3201183584
100
AcDbArc
 50
33.4291081596
 51
39.3026609194
  0
LINE
  5
12A
100
AcDbEntity
  8
1_000_331
  6
CONTINUOUS
 62
         7
100
AcDbLine
 10
13.5456644259
 20
17.4241805198
 30
0.0
 11
13.5456644259
 21
17.1617118699
 31
0.0
  0
ARC
  5
12B
100
AcDbEntity
  8
1_000_331
  6
CONTINUOUS
 62
         7
100
AcDbCircle
 10
13.2956644259
 20
17.3694707071
 30
0.0
 40
0.2559163215
100
AcDbArc
 50
66.172224611
 51
85.0218645113
  0
LINE
  5
12C
100
AcDbEntity
  8
1_000_331
  6
CONTINUOUS
 62
         7
100
AcDbLine
 10
13.302017091
 20
17.6244216827
 30
0.0
 11
13.3178717133
 21
17.6244216827
 31
0.0
  0
LINE
  5
12D
100
AcDbEntity
  8
1_000_331
  6
CONTINUOUS
 62
         7
100
AcDbLine
 10
11.7393117608
 20
14.7400690182
 30
0.0
 11
11.7393117608
 21
14.9875539024
 31
0.0
  0
ARC
  5
12E
100
AcDbEntity
  8
1_000_331
  6
CONTINUOUS
 62
         7
100
AcDbCircle
 10
13.2956644259
 20
17.2164216827
 30
0.0
 40
0.255
100
AcDbArc
 50
281.9892800849
 51
348.635123033
  0
LINE
  5
12F
100
AcDbEntity
  8
1_000_331
  6
CONTINUOUS
 62
         7
100
AcDbLine
 10
11.52933082
 20
17.5058658356
 30
0.0
 11
11.5292214342
 21
17.5060195809
 31
0.0
  0
ARC
  5
130
100
AcDbEntity
  8
1_000_331
  6
CONTINUOUS
 62
         7
100
AcDbCircle
 10
11.7777518033
 20
17.3133409279
 30
0.0
 40
0.3201183584
100
AcDbArc
 50
115.0100046366
 51
120.8835573964
  0
ARC
  5
131
100
AcDbEntity
  8
1_000_331
  6
CONTINUOUS
 62
         7
100
AcDbCircle
 10
11.5903872543
 20
16.5894216827
 30
0.0
 40
0.075
100
AcDbArc
 50
46.2221100512
 51
215.3587864258
  0
LINE
  5
132
100
AcDbEntity
  8
1_000_331
  6
CONTINUOUS
 62
         7
100
AcDbLine
 10
11.52933082
 20
16.5458658356
 30
0.0
 11
11.5292214342
 21
16.5460195809
 31
0.0
  0
ARC
  5
133
100
AcDbEntity
  8
1_000_331
  6
CONTINUOUS
 62
         7
100
AcDbCircle
 10
11.7777518033
 20
16.3533409279
 30
0.0
 40
0.3201183584
100
AcDbArc
 50
115.0100046366
 51
120.8835573964
  0
LINE
  5
134
100
AcDbEntity
  8
1_000_331
  6
CONTINUOUS
 62
         7
100
AcDbLine
 10
11.52933082
 20
15.5858658356
 30
0.0
 11
11.5292214342
 21
15.5860195809
 31
0.0
  0
ARC
  5
135
100
AcDbEntity
  8
1_000_331
  6
CONTINUOUS
 62
         7
100
AcDbCircle
 10
11.7777518033
 20
15.3933409279
 30
0.0
 40
0.3201183584
100
AcDbArc
 50
115.0100046366
 51
120.8835573964
  0
ARC
  5
136
100
AcDbEntity
  8
1_000_331
  6
CONTINUOUS
 62
         7
100
AcDbCircle
 10
13.2956644259
 20
15.4494707071
 30
0.0
 40
0.2554799779
100
AcDbArc
 50
39.5882336263
 51
58.8308698967
  0
ARC
  5
137
100
AcDbEntity
  8
1_000_331
  6
CONTINUOUS
 62
         7
100
AcDbCircle
 10
13.2956644259
 20
16.4094707071
 30
0.0
 40
0.2554799779
100
AcDbArc
 50
39.5882336263
 51
58.8308698967
  0
LINE
  5
138
100
AcDbEntity
  8
1_000_331
  6
CONTINUOUS
 62
         7
100
AcDbLine
 10
13.5121074176
 20
15.5860195809
 30
0.0
 11
13.5119980318
 21
15.5858658356
 31
0.0
  0
ARC
  5
139
100
AcDbEntity
  8
1_000_331
  6
CONTINUOUS
 62
         7
100
AcDbCircle
 10
13.200206066
 20
15.2738899665
 30
0.0
 40
0.4552133635
100
AcDbArc
 50
59.9884524526
 51
64.1179823996
  0
ARC
  5
13A
100
AcDbEntity
  8
1_000_331
  6
CONTINUOUS
 62
         7
100
AcDbCircle
 10
11.9053767013
 20
17.2493337685
 30
0.0
 40
0.4552133635
100
AcDbArc
 50
141.5693489296
 51
145.6988788766
  0
ARC
  5
13B
100
AcDbEntity
  8
1_000_331
  6
CONTINUOUS
 62
         7
100
AcDbCircle
 10
11.7456644259
 20
16.4094707071
 30
0.0
 40
0.2554799779
100
AcDbArc
 50
121.1691301033
 51
140.4117663737
  0
ARC
  5
13C
100
AcDbEntity
  8
1_000_331
  6
CONTINUOUS
 62
         7
100
AcDbCircle
 10
11.7456644259
 20
17.3694707071
 30
0.0
 40
0.2559163215
100
AcDbArc
 50
94.9781354887
 51
113.827775389
  0
LINE
  5
13D
100
AcDbEntity
  8
1_000_331
  6
CONTINUOUS
 62
         7
100
AcDbLine
 10
11.7402280823
 20
16.6644127518
 30
0.0
 11
11.7393117608
 21
16.6653081696
 31
0.0
  0
ARC
  5
13E
100
AcDbEntity
  8
1_000_331
  6
CONTINUOUS
 62
         7
100
AcDbCircle
 10
13.3610978296
 20
14.9882957059
 30
0.0
 40
0.0599970601
100
AcDbArc
 50
101.9887732682
 51
180.0005068167
  0
ARC
  5
13F
100
AcDbEntity
  8
1_000_331
  6
CONTINUOUS
 62
         7
100
AcDbCircle
 10
13.2956644259
 20
16.4094707071
 30
0.0
 40
0.2559163215
100
AcDbArc
 50
12.3439673776
 51
32.246878912
  0
LINE
  5
140
100
AcDbEntity
  8
1_000_331
  6
CONTINUOUS
 62
         7
100
AcDbLine
 10
13.5121074176
 20
16.5460195809
 30
0.0
 11
13.5119980318
 21
16.5458658356
 31
0.0
  0
ARC
  5
141
100
AcDbEntity
  8
1_000_331
  6
CONTINUOUS
 62
         7
100
AcDbCircle
 10
13.3610978296
 20
16.9082957059
 30
0.0
 40
0.0599970601
100
AcDbArc
 50
101.9887732682
 51
180.0005068167
  0
ARC
  5
142
100
AcDbEntity
  8
1_000_331
  6
CONTINUOUS
 62
         7
100
AcDbCircle
 10
11.6802310222
 20
16.9082957059
 30
0.0
 40
0.0599970601
100
AcDbArc
 50
0.0
 51
78.0112267319
  0
ARC
  5
143
100
AcDbEntity
  8
1_000_331
  6
CONTINUOUS
 62
         7
100
AcDbCircle
 10
11.9053767013
 20
15.3293337685
 30
0.0
 40
0.4552133635
100
AcDbArc
 50
141.5693489296
 51
145.6988788766
  0
LINE
  5
144
100
AcDbEntity
  8
1_000_331
  6
CONTINUOUS
 62
         7
100
AcDbLine
 10
11.6422770993
 20
16.6435737278
 30
0.0
 11
11.6424131724
 21
16.6434430105
 31
0.0
  0
LINE
  5
145
100
AcDbEntity
  8
1_000_331
  6
CONTINUOUS
 62
         7
100
AcDbLine
 10
11.6422770993
 20
17.6035737278
 30
0.0
 11
11.6424131724
 21
17.6034430105
 31
0.0
  0
ARC
  5
146
100
AcDbEntity
  8
1_000_331
  6
CONTINUOUS
 62
         7
100
AcDbCircle
 10
11.9053767013
 20
16.2893337685
 30
0.0
 40
0.4552133635
100
AcDbArc
 50
141.5693489296
 51
145.6988788766
  0
ARC
  5
147
100
AcDbEntity
  8
1_000_331
  6
CONTINUOUS
 62
         7
100
AcDbCircle
 10
13.2956644259
 20
17.3694707071
 30
0.0
 40
0.2559163215
100
AcDbArc
 50
12.3439673776
 51
32.246878912
  0
POLYLINE
  5
148
100
AcDbEntity
  8
1_000_331
  6
CONTINUOUS
 62
         7
100
AcDb2dPolyline
 66
         1
 10
0.0
 20
0.0
 30
0.0
 70
         4
  0
VERTEX
  5
149
100
AcDbEntity
  8
1_000_331
  6
CONTINUOUS
 62
         7
100
AcDbVertex
100
AcDb2dVertex
 10
11.7430626935
 20
15.7992857638
 30
0.0
 70
         8
  0
VERTEX
  5
14A
100
AcDbEntity
  8
1_000_331
  6
CONTINUOUS
 62
         7
100
AcDbVertex
100
AcDb2dVertex
 10
11.7441526495
 20
15.8010534966
 30
0.0
 70
         8
  0
VERTEX
  5
14B
100
AcDbEntity
  8
1_000_331
  6
CONTINUOUS
 62
         7
100
AcDbVertex
100
AcDb2dVertex
 10
11.7455348079
 20
15.8025997711
 30
0.0
 70
         8
  0
SEQEND
  5
14C
100
AcDbEntity
  8
1_000_331
  6
CONTINUOUS
 62
         7
  0
POLYLINE
  5
14D
100
AcDbEntity
  8
1_000_331
  6
CONTINUOUS
 62
         7
100
AcDb2dPolyline
 66
         1
 10
0.0
 20
0.0
 30
0.0
 70
         4
  0
VERTEX
  5
14E
100
AcDbEntity
  8
1_000_331
  6
CONTINUOUS
 62
         7
100
AcDbVertex
100
AcDb2dVertex
 10
11.7430626935
 20
16.7592857638
 30
0.0
 70
         8
  0
VERTEX
  5
14F
100
AcDbEntity
  8
1_000_331
  6
CONTINUOUS
 62
         7
100
AcDbVertex
100
AcDb2dVertex
 10
11.7441526495
 20
16.7610534966
 30
0.0
 70
         8
  0
VERTEX
  5
150
100
AcDbEntity
  8
1_000_331
  6
CONTINUOUS
 62
         7
100
AcDbVertex
100
AcDb2dVertex
 10
11.7455348079
 20
16.7625997711
 30
0.0
 70
         8
  0
SEQEND
  5
151
100
AcDbEntity
  8
1_000_331
  6
CONTINUOUS
 62
         7
  0
LINE
  5
152
100
AcDbEntity
  8
1_000_329
  6
CONTINUOUS
 62
         7
100
AcDbLine
 10
13.2956644259
 20
14.9889216827
 30
0.0
 11
13.2961225866
 21
14.9889216827
 31
0.0
  0
LINE
  5
153
100
AcDbEntity
  8
1_000_329
  6
CONTINUOUS
 62
         7
100
AcDbLine
 10
11.746537113
 20
15.1004849653
 30
0.0
 11
11.746537113
 21
14.983377724
 31
0.0
  0
ARC
  5
154
100
AcDbEntity
  8
1_000_329
  6
CONTINUOUS
 62
         7
100
AcDbCircle
 10
13.2956644259
 20
15.4496106857
 30
0.0
 40
0.2391273128
100
AcDbArc
 50
0.0
 51
90.0
  0
ARC
  5
155
100
AcDbEntity
  8
1_000_329
  6
CONTINUOUS
 62
         7
100
AcDbCircle
 10
11.7456644259
 20
15.4496106857
 30
0.0
 40
0.2391273128
100
AcDbArc
 50
90.0
 51
180.0
  0
ARC
  5
156
100
AcDbEntity
  8
1_000_329
  6
CONTINUOUS
 62
         7
100
AcDbCircle
 10
13.2956644259
 20
15.3396106857
 30
0.0
 40
0.2391273128
100
AcDbArc
 50
269.7909004994
 51
360.0
  0
LINE
  5
157
100
AcDbEntity
  8
1_000_329
  6
CONTINUOUS
 62
         7
100
AcDbLine
 10
11.506537113
 20
15.4496106857
 30
0.0
 11
11.506537113
 21
15.3396106857
 31
0.0
  0
ELLIPSE
  5
158
100
AcDbEntity
  8
1_000_329
  6
CONTINUOUS
 62
         7
100
AcDbEllipse
 10
13.2961225866
 20
14.8964216827
 30
0.0
 11
0.0000000000000008
 21
0.0924999999999996
 31
0.0
210
0.0
220
0.0
230
1.0
 40
0.0087268715
 41
5.5850536063821092
 42
6.2831853071762005
  0
LINE
  5
159
100
AcDbEntity
  8
1_000_329
  6
CONTINUOUS
 62
         7
100
AcDbLine
 10
13.2956644259
 20
14.77429855
 30
0.0
 11
11.7456644259
 21
14.77429855
 31
0.0
  0
ELLIPSE
  5
15A
100
AcDbEntity
  8
1_000_329
  6
CONTINUOUS
 62
         7
100
AcDbEllipse
 10
11.7456125883
 20
14.8209216827
 30
0.0
 11
0.0000000000000011
 21
-0.0469999999999982
 31
0.0
210
0.0
220
0.0
230
1.0
 40
0.0087268715
 41
0.1267216653645196
 42
0.8747218743577289
  0
ELLIPSE
  5
15B
100
AcDbEntity
  8
1_000_329
  6
CONTINUOUS
 62
         7
100
AcDbEllipse
 10
13.2957162634
 20
14.8209216827
 30
0.0
 11
-0.0000000000000008
 21
-0.0469999999999982
 31
0.0
210
0.0
220
0.0
230
1.0
 40
0.0087268715
 41
5.4084634328234396
 42
6.156463641818581
  0
ELLIPSE
  5
15C
100
AcDbEntity
  8
1_000_329
  6
CONTINUOUS
 62
         7
100
AcDbEllipse
 10
13.2965292772
 20
14.9519599049
 30
0.0
 11
0.0000000000000001
 21
0.0199999999999998
 31
0.0
210
0.0
220
0.0
230
1.0
 40
0.0087268715
 41
4.6854877933473151
 42
5.5850536063877794
  0
LINE
  5
15D
100
AcDbEntity
  8
1_000_329
  6
CONTINUOUS
 62
         7
100
AcDbLine
 10
11.7456644259
 20
14.9889216827
 30
0.0
 11
11.7456644259
 21
15.0996106857
 31
0.0
  0
LINE
  5
15E
100
AcDbEntity
  8
1_000_329
  6
CONTINUOUS
 62
         7
100
AcDbLine
 10
11.7456644259
 20
14.77429855
 30
0.0
 11
11.7456644259
 21
14.8039216827
 31
0.0
  0
ELLIPSE
  5
15F
100
AcDbEntity
  8
1_000_329
  6
CONTINUOUS
 62
         7
100
AcDbEllipse
 10
11.7439159235
 20
14.983377724
 30
0.0
 11
0.0
 21
0.300358437219595
 31
0.0
210
0.0
220
0.0
230
1.0
 40
0.0087268715
 41
4.016314527948694
 42
4.7123889803846897
  0
LINE
  5
160
100
AcDbEntity
  8
1_000_329
  6
CONTINUOUS
 62
         7
100
AcDbLine
 10
13.2956644259
 20
14.9889216827
 30
0.0
 11
13.2956644259
 21
15.0996106857
 31
0.0
  0
ARC
  5
161
100
AcDbEntity
  8
1_000_329
  6
CONTINUOUS
 62
         7
100
AcDbCircle
 10
13.2956644259
 20
15.3396106857
 30
0.0
 40
0.24
100
AcDbArc
 50
270.0
 51
360.0
  0
LINE
  5
162
100
AcDbEntity
  8
1_000_329
  6
CONTINUOUS
 62
         7
100
AcDbLine
 10
13.2956644259
 20
14.77429855
 30
0.0
 11
13.2956644259
 21
14.8039216827
 31
0.0
  0
ELLIPSE
  5
163
100
AcDbEntity
  8
1_000_329
  6
CONTINUOUS
 62
         7
100
AcDbEllipse
 10
13.2974129282
 20
14.983377724
 30
0.0
 11
0.0
 21
-0.300358437219595
 31
0.0
210
0.0
220
0.0
230
1.0
 40
0.0087268715
 41
4.7123889803846959
 42
5.4084634328211463
  0
ARC
  5
164
100
AcDbEntity
  8
1_000_329
  6
CONTINUOUS
 62
         7
100
AcDbCircle
 10
11.7456644259
 20
15.3396106857
 30
0.0
 40
0.24
100
AcDbArc
 50
180.0
 51
270.0
  0
LINE
  5
165
100
AcDbEntity
  8
1_000_329
  6
CONTINUOUS
 62
         7
100
AcDbLine
 10
13.5356644259
 20
15.3396106857
 30
0.0
 11
13.5356644259
 21
15.4496106857
 31
0.0
  0
ARC
  5
166
100
AcDbEntity
  8
1_000_329
  6
CONTINUOUS
 62
         7
100
AcDbCircle
 10
13.2956644259
 20
15.4496106857
 30
0.0
 40
0.24
100
AcDbArc
 50
0.0
 51
90.0
  0
LINE
  5
167
100
AcDbEntity
  8
1_000_329
  6
CONTINUOUS
 62
         7
100
AcDbLine
 10
11.5056644259
 20
15.4496106857
 30
0.0
 11
11.5056644259
 21
15.3396106857
 31
0.0
  0
LINE
  5
168
100
AcDbEntity
  8
1_000_329
  6
CONTINUOUS
 62
         7
100
AcDbLine
 10
11.7456644259
 20
15.0996106857
 30
0.0
 11
11.746537113
 21
15.1004849653
 31
0.0
  0
LINE
  5
169
100
AcDbEntity
  8
1_000_329
  6
CONTINUOUS
 62
         7
100
AcDbLine
 10
11.7456644259
 20
14.9489216827
 30
0.0
 11
11.7456644259
 21
14.9889216827
 31
0.0
  0
LINE
  5
16A
100
AcDbEntity
  8
1_000_329
  6
CONTINUOUS
 62
         7
100
AcDbLine
 10
11.7456644259
 20
14.8039216827
 30
0.0
 11
11.7456644259
 21
14.8439216827
 31
0.0
  0
LINE
  5
16B
100
AcDbEntity
  8
1_000_329
  6
CONTINUOUS
 62
         7
100
AcDbLine
 10
13.2956644259
 20
14.8039216827
 30
0.0
 11
13.2956644259
 21
14.8439216827
 31
0.0
  0
LINE
  5
16C
100
AcDbEntity
  8
1_000_329
  6
CONTINUOUS
 62
         7
100
AcDbLine
 10
13.2956644259
 20
15.0996106857
 30
0.0
 11
13.2947917387
 21
15.1004849653
 31
0.0
  0
ARC
  5
16D
100
AcDbEntity
  8
1_000_329
  6
CONTINUOUS
 62
         7
100
AcDbCircle
 10
11.7456644259
 20
15.4496106857
 30
0.0
 40
0.24
100
AcDbArc
 50
90.0
 51
180.0
  0
ARC
  5
16E
100
AcDbEntity
  8
1_000_329
  6
CONTINUOUS
 62
         7
100
AcDbCircle
 10
11.7456644259
 20
15.3396106857
 30
0.0
 40
0.2391273128
100
AcDbArc
 50
180.0
 51
270.2090995006
  0
LINE
  5
16F
100
AcDbEntity
  8
1_000_329
  6
CONTINUOUS
 62
         7
100
AcDbLine
 10
13.2956644259
 20
15.6887379985
 30
0.0
 11
11.7456644259
 21
15.6887379985
 31
0.0
  0
LINE
  5
170
100
AcDbEntity
  8
1_000_329
  6
CONTINUOUS
 62
         7
100
AcDbLine
 10
13.2956644259
 20
15.6896106857
 30
0.0
 11
11.7456644259
 21
15.6896106857
 31
0.0
  0
LINE
  5
171
100
AcDbEntity
  8
1_000_329
  6
CONTINUOUS
 62
         7
100
AcDbLine
 10
13.5347917387
 20
15.3396106857
 30
0.0
 11
13.5347917387
 21
15.4496106857
 31
0.0
  0
LINE
  5
172
100
AcDbEntity
  8
1_000_329
  6
CONTINUOUS
 62
         7
100
AcDbLine
 10
13.2947917387
 20
15.1004849653
 30
0.0
 11
13.2947917387
 21
14.983377724
 31
0.0
  0
LINE
  5
173
100
AcDbEntity
  8
1_000_329
  6
CONTINUOUS
 62
         7
100
AcDbLine
 10
13.2956644259
 20
15.73429855
 30
0.0
 11
11.7456644259
 21
15.73429855
 31
0.0
  0
ELLIPSE
  5
174
100
AcDbEntity
  8
1_000_329
  6
CONTINUOUS
 62
         7
100
AcDbEllipse
 10
13.2957162634
 20
15.7809216827
 30
0.0
 11
-0.0000000000000003
 21
-0.047
 31
0.0
210
0.0
220
0.0
230
1.0
 40
0.0087268715
 41
5.4084634328224528
 42
6.156463641817238
  0
ELLIPSE
  5
175
100
AcDbEntity
  8
1_000_329
  6
CONTINUOUS
 62
         7
100
AcDbEllipse
 10
11.7456125883
 20
15.7809216827
 30
0.0
 11
0.0000000000000003
 21
-0.0469999999999999
 31
0.0
210
0.0
220
0.0
230
1.0
 40
0.0087268715
 41
0.1267216653666568
 42
0.8747218743599502
  0
ELLIPSE
  5
176
100
AcDbEntity
  8
1_000_329
  6
CONTINUOUS
 62
         7
100
AcDbEllipse
 10
13.2965292772
 20
15.9119599049
 30
0.0
 11
0.0
 21
0.0199999999999999
 31
0.0
210
0.0
220
0.0
230
1.0
 40
0.0087268715
 41
4.6854877933474119
 42
5.5850536063867127
  0
ELLIPSE
  5
177
100
AcDbEntity
  8
1_000_329
  6
CONTINUOUS
 62
         7
100
AcDbEllipse
 10
11.7439159235
 20
15.943377724
 30
0.0
 11
0.0
 21
-0.3003584372195952
 31
0.0
210
0.0
220
0.0
230
1.0
 40
0.0087268715
 41
0.8747218743579719
 42
1.5707963267948966
  0
LINE
  5
178
100
AcDbEntity
  8
1_000_329
  6
CONTINUOUS
 62
         7
100
AcDbLine
 10
11.7456644259
 20
15.9489216827
 30
0.0
 11
11.7456644259
 21
16.0596106857
 31
0.0
  0
LINE
  5
179
100
AcDbEntity
  8
1_000_329
  6
CONTINUOUS
 62
         7
100
AcDbLine
 10
11.7456644259
 20
15.73429855
 30
0.0
 11
11.7456644259
 21
15.7639216827
 31
0.0
  0
ARC
  5
17A
100
AcDbEntity
  8
1_000_329
  6
CONTINUOUS
 62
         7
100
AcDbCircle
 10
13.2956644259
 20
16.2996106857
 30
0.0
 40
0.24
100
AcDbArc
 50
270.0
 51
360.0
  0
LINE
  5
17B
100
AcDbEntity
  8
1_000_329
  6
CONTINUOUS
 62
         7
100
AcDbLine
 10
13.2956644259
 20
15.73429855
 30
0.0
 11
13.2956644259
 21
15.7639216827
 31
0.0
  0
LINE
  5
17C
100
AcDbEntity
  8
1_000_329
  6
CONTINUOUS
 62
         7
100
AcDbLine
 10
13.2956644259
 20
15.9489216827
 30
0.0
 11
13.2956644259
 21
16.0596106857
 31
0.0
  0
ELLIPSE
  5
17D
100
AcDbEntity
  8
1_000_329
  6
CONTINUOUS
 62
         7
100
AcDbEllipse
 10
13.2974129282
 20
15.943377724
 30
0.0
 11
0.0
 21
-0.300358437219595
 31
0.0
210
0.0
220
0.0
230
1.0
 40
0.0087268715
 41
4.7123889803846897
 42
5.4084634328220806
  0
LINE
  5
17E
100
AcDbEntity
  8
1_000_329
  6
CONTINUOUS
 62
         7
100
AcDbLine
 10
13.5356644259
 20
16.2996106857
 30
0.0
 11
13.5356644259
 21
16.4096106857
 31
0.0
  0
ARC
  5
17F
100
AcDbEntity
  8
1_000_329
  6
CONTINUOUS
 62
         7
100
AcDbCircle
 10
13.2956644259
 20
16.4096106857
 30
0.0
 40
0.24
100
AcDbArc
 50
0.0
 51
90.0
  0
ARC
  5
180
100
AcDbEntity
  8
1_000_329
  6
CONTINUOUS
 62
         7
100
AcDbCircle
 10
11.7456644259
 20
16.2996106857
 30
0.0
 40
0.24
100
AcDbArc
 50
180.0
 51
270.0
  0
LINE
  5
181
100
AcDbEntity
  8
1_000_329
  6
CONTINUOUS
 62
         7
100
AcDbLine
 10
11.5056644259
 20
16.4096106857
 30
0.0
 11
11.5056644259
 21
16.2996106857
 31
0.0
  0
LINE
  5
182
100
AcDbEntity
  8
1_000_329
  6
CONTINUOUS
 62
         7
100
AcDbLine
 10
13.2956644259
 20
15.7639216827
 30
0.0
 11
13.2956644259
 21
15.8039216827
 31
0.0
  0
LINE
  5
183
100
AcDbEntity
  8
1_000_329
  6
CONTINUOUS
 62
         7
100
AcDbLine
 10
11.7456644259
 20
16.0596106857
 30
0.0
 11
11.746537113
 21
16.0604849653
 31
0.0
  0
LINE
  5
184
100
AcDbEntity
  8
1_000_329
  6
CONTINUOUS
 62
         7
100
AcDbLine
 10
11.7456644259
 20
15.9089216827
 30
0.0
 11
11.7456644259
 21
15.9489216827
 31
0.0
  0
LINE
  5
185
100
AcDbEntity
  8
1_000_329
  6
CONTINUOUS
 62
         7
100
AcDbLine
 10
11.7456644259
 20
15.7639216827
 30
0.0
 11
11.7456644259
 21
15.8039216827
 31
0.0
  0
LINE
  5
186
100
AcDbEntity
  8
1_000_329
  6
CONTINUOUS
 62
         7
100
AcDbLine
 10
13.2956644259
 20
16.0596106857
 30
0.0
 11
13.2947917387
 21
16.0604849653
 31
0.0
  0
ARC
  5
187
100
AcDbEntity
  8
1_000_329
  6
CONTINUOUS
 62
         7
100
AcDbCircle
 10
11.7456644259
 20
16.4096106857
 30
0.0
 40
0.24
100
AcDbArc
 50
90.0
 51
180.0
  0
LINE
  5
188
100
AcDbEntity
  8
1_000_329
  6
CONTINUOUS
 62
         7
100
AcDbLine
 10
13.2956644259
 20
16.6496106857
 30
0.0
 11
11.7456644259
 21
16.6496106857
 31
0.0
  0
LINE
  5
189
100
AcDbEntity
  8
1_000_329
  6
CONTINUOUS
 62
         7
100
AcDbLine
 10
13.2956644259
 20
16.6487379985
 30
0.0
 11
11.7456644259
 21
16.6487379985
 31
0.0
  0
ARC
  5
18A
100
AcDbEntity
  8
1_000_329
  6
CONTINUOUS
 62
         7
100
AcDbCircle
 10
11.7456644259
 20
16.2996106857
 30
0.0
 40
0.2391273128
100
AcDbArc
 50
180.0
 51
270.2090995006
  0
LINE
  5
18B
100
AcDbEntity
  8
1_000_329
  6
CONTINUOUS
 62
         7
100
AcDbLine
 10
13.5347917387
 20
16.2996106857
 30
0.0
 11
13.5347917387
 21
16.4096106857
 31
0.0
  0
LINE
  5
18C
100
AcDbEntity
  8
1_000_329
  6
CONTINUOUS
 62
         7
100
AcDbLine
 10
13.2947917387
 20
16.0604849653
 30
0.0
 11
13.2947917387
 21
15.943377724
 31
0.0
  0
LINE
  5
18D
100
AcDbEntity
  8
1_000_329
  6
CONTINUOUS
 62
         7
100
AcDbLine
 10
13.2956644259
 20
15.9489216827
 30
0.0
 11
13.2961225866
 21
15.9489216827
 31
0.0
  0
LINE
  5
18E
100
AcDbEntity
  8
1_000_329
  6
CONTINUOUS
 62
         7
100
AcDbLine
 10
11.746537113
 20
16.0604849653
 30
0.0
 11
11.746537113
 21
15.943377724
 31
0.0
  0
ARC
  5
18F
100
AcDbEntity
  8
1_000_329
  6
CONTINUOUS
 62
         7
100
AcDbCircle
 10
13.2956644259
 20
16.4096106857
 30
0.0
 40
0.2391273128
100
AcDbArc
 50
0.0
 51
90.0
  0
ARC
  5
190
100
AcDbEntity
  8
1_000_329
  6
CONTINUOUS
 62
         7
100
AcDbCircle
 10
11.7456644259
 20
16.4096106857
 30
0.0
 40
0.2391273128
100
AcDbArc
 50
90.0
 51
180.0
  0
ARC
  5
191
100
AcDbEntity
  8
1_000_329
  6
CONTINUOUS
 62
         7
100
AcDbCircle
 10
13.2956644259
 20
16.2996106857
 30
0.0
 40
0.2391273128
100
AcDbArc
 50
269.7909004994
 51
360.0
  0
LINE
  5
192
100
AcDbEntity
  8
1_000_329
  6
CONTINUOUS
 62
         7
100
AcDbLine
 10
11.506537113
 20
16.4096106857
 30
0.0
 11
11.506537113
 21
16.2996106857
 31
0.0
  0
ELLIPSE
  5
193
100
AcDbEntity
  8
1_000_329
  6
CONTINUOUS
 62
         7
100
AcDbEllipse
 10
13.2961225866
 20
15.8564216827
 30
0.0
 11
-0.0000000000000003
 21
0.0925000000000003
 31
0.0
210
0.0
220
0.0
230
1.0
 40
0.0087268715
 41
5.5850536063849114
 42
6.2831853071792478
  0
LINE
  5
194
100
AcDbEntity
  8
1_000_329
  6
CONTINUOUS
 62
         7
100
AcDbLine
 10
13.2956644259
 20
16.9089216827
 30
0.0
 11
13.2961225866
 21
16.9089216827
 31
0.0
  0
LINE
  5
195
100
AcDbEntity
  8
1_000_329
  6
CONTINUOUS
 62
         7
100
AcDbLine
 10
11.746537113
 20
17.0204849653
 30
0.0
 11
11.746537113
 21
16.903377724
 31
0.0
  0
ARC
  5
196
100
AcDbEntity
  8
1_000_329
  6
CONTINUOUS
 62
         7
100
AcDbCircle
 10
13.2956644259
 20
17.3696106857
 30
0.0
 40
0.2391273128
100
AcDbArc
 50
0.0
 51
90.0
  0
ARC
  5
197
100
AcDbEntity
  8
1_000_329
  6
CONTINUOUS
 62
         7
100
AcDbCircle
 10
11.7456644259
 20
17.3696106857
 30
0.0
 40
0.2391273128
100
AcDbArc
 50
90.0
 51
180.0
  0
ARC
  5
198
100
AcDbEntity
  8
1_000_329
  6
CONTINUOUS
 62
         7
100
AcDbCircle
 10
13.2956644259
 20
17.2596106857
 30
0.0
 40
0.2391273128
100
AcDbArc
 50
269.7909004994
 51
360.0
  0
LINE
  5
199
100
AcDbEntity
  8
1_000_329
  6
CONTINUOUS
 62
         7
100
AcDbLine
 10
11.506537113
 20
17.3696106857
 30
0.0
 11
11.506537113
 21
17.2596106857
 31
0.0
  0
ELLIPSE
  5
19A
100
AcDbEntity
  8
1_000_329
  6
CONTINUOUS
 62
         7
100
AcDbEllipse
 10
13.2961225866
 20
16.8164216827
 30
0.0
 11
-0.0000000000000003
 21
0.0924999999999999
 31
0.0
210
0.0
220
0.0
230
1.0
 40
0.0087268715
 41
5.5850536063806659
 42
6.2831853071792478
  0
LINE
  5
19B
100
AcDbEntity
  8
1_000_329
  6
CONTINUOUS
 62
         7
100
AcDbLine
 10
13.2956644259
 20
16.69429855
 30
0.0
 11
11.7456644259
 21
16.69429855
 31
0.0
  0
ELLIPSE
  5
19C
100
AcDbEntity
  8
1_000_329
  6
CONTINUOUS
 62
         7
100
AcDbEllipse
 10
11.7456125883
 20
16.7409216827
 30
0.0
 11
-0.0000000000000008
 21
-0.0470000000000005
 31
0.0
210
0.0
220
0.0
230
1.0
 40
0.0087268715
 41
0.1267216653609119
 42
0.8747218743558216
  0
ELLIPSE
  5
19D
100
AcDbEntity
  8
1_000_329
  6
CONTINUOUS
 62
         7
100
AcDbEllipse
 10
13.2957162634
 20
16.7409216827
 30
0.0
 11
-0.0000000000000003
 21
-0.047
 31
0.0
210
0.0
220
0.0
230
1.0
 40
0.0087268715
 41
5.4084634328272605
 42
6.1564636418216061
  0
ELLIPSE
  5
19E
100
AcDbEntity
  8
1_000_329
  6
CONTINUOUS
 62
         7
100
AcDbEllipse
 10
13.2965292772
 20
16.8719599049
 30
0.0
 11
0.0000000000000001
 21
0.0199999999999997
 31
0.0
210
0.0
220
0.0
230
1.0
 40
0.0087268715
 41
4.685487793347404
 42
5.5850536063878407
  0
ELLIPSE
  5
19F
100
AcDbEntity
  8
1_000_329
  6
CONTINUOUS
 62
         7
100
AcDbEllipse
 10
11.7439159235
 20
16.903377724
 30
0.0
 11
0.0
 21
0.3003584372195947
 31
0.0
210
0.0
220
0.0
230
1.0
 40
0.0087268715
 41
4.0163145279463563
 42
4.7123889803846897
  0
LINE
  5
1A0
100
AcDbEntity
  8
1_000_329
  6
CONTINUOUS
 62
         7
100
AcDbLine
 10
11.7456644259
 20
16.69429855
 30
0.0
 11
11.7456644259
 21
16.7239216827
 31
0.0
  0
ARC
  5
1A1
100
AcDbEntity
  8
1_000_329
  6
CONTINUOUS
 62
         7
100
AcDbCircle
 10
13.2956644259
 20
17.2596106857
 30
0.0
 40
0.24
100
AcDbArc
 50
270.0
 51
360.0
  0
LINE
  5
1A2
100
AcDbEntity
  8
1_000_329
  6
CONTINUOUS
 62
         7
100
AcDbLine
 10
11.7456644259
 20
16.9089216827
 30
0.0
 11
11.7456644259
 21
17.0196106857
 31
0.0
  0
LINE
  5
1A3
100
AcDbEntity
  8
1_000_329
  6
CONTINUOUS
 62
         7
100
AcDbLine
 10
13.2956644259
 20
16.69429855
 30
0.0
 11
13.2956644259
 21
16.7239216827
 31
0.0
  0
LINE
  5
1A4
100
AcDbEntity
  8
1_000_329
  6
CONTINUOUS
 62
         7
100
AcDbLine
 10
13.2956644259
 20
16.9089216827
 30
0.0
 11
13.2956644259
 21
17.0196106857
 31
0.0
  0
ELLIPSE
  5
1A5
100
AcDbEntity
  8
1_000_329
  6
CONTINUOUS
 62
         7
100
AcDbEllipse
 10
13.2974129282
 20
16.903377724
 30
0.0
 11
0.0
 21
0.3003584372195947
 31
0.0
210
0.0
220
0.0
230
1.0
 40
0.0087268715
 41
1.5707963267948966
 42
2.2668707792336642
  0
ARC
  5
1A6
100
AcDbEntity
  8
1_000_329
  6
CONTINUOUS
 62
         7
100
AcDbCircle
 10
13.2956644259
 20
17.3696106857
 30
0.0
 40
0.24
100
AcDbArc
 50
0.0
 51
90.0
  0
LINE
  5
1A7
100
AcDbEntity
  8
1_000_329
  6
CONTINUOUS
 62
         7
100
AcDbLine
 10
13.5356644259
 20
17.2596106857
 30
0.0
 11
13.5356644259
 21
17.3696106857
 31
0.0
  0
LINE
  5
1A8
100
AcDbEntity
  8
1_000_329
  6
CONTINUOUS
 62
         7
100
AcDbLine
 10
11.5056644259
 20
17.3696106857
 30
0.0
 11
11.5056644259
 21
17.2596106857
 31
0.0
  0
ARC
  5
1A9
100
AcDbEntity
  8
1_000_329
  6
CONTINUOUS
 62
         7
100
AcDbCircle
 10
11.7456644259
 20
17.2596106857
 30
0.0
 40
0.24
100
AcDbArc
 50
180.0
 51
270.0
  0
LINE
  5
1AA
100
AcDbEntity
  8
1_000_329
  6
CONTINUOUS
 62
         7
100
AcDbLine
 10
11.7456644259
 20
17.0196106857
 30
0.0
 11
11.746537113
 21
17.0204849653
 31
0.0
  0
LINE
  5
1AB
100
AcDbEntity
  8
1_000_329
  6
CONTINUOUS
 62
         7
100
AcDbLine
 10
11.7456644259
 20
16.7239216827
 30
0.0
 11
11.7456644259
 21
16.7639216827
 31
0.0
  0
LINE
  5
1AC
100
AcDbEntity
  8
1_000_329
  6
CONTINUOUS
 62
         7
100
AcDbLine
 10
13.2956644259
 20
16.7239216827
 30
0.0
 11
13.2956644259
 21
16.7639216827
 31
0.0
  0
LINE
  5
1AD
100
AcDbEntity
  8
1_000_329
  6
CONTINUOUS
 62
         7
100
AcDbLine
 10
11.7456644259
 20
16.8689216827
 30
0.0
 11
11.7456644259
 21
16.9089216827
 31
0.0
  0
LINE
  5
1AE
100
AcDbEntity
  8
1_000_329
  6
CONTINUOUS
 62
         7
100
AcDbLine
 10
13.2956644259
 20
17.6096106857
 30
0.0
 11
11.7456644259
 21
17.6096106857
 31
0.0
  0
ARC
  5
1AF
100
AcDbEntity
  8
1_000_329
  6
CONTINUOUS
 62
         7
100
AcDbCircle
 10
11.7456644259
 20
17.3696106857
 30
0.0
 40
0.24
100
AcDbArc
 50
90.0
 51
180.0
  0
ARC
  5
1B0
100
AcDbEntity
  8
1_000_329
  6
CONTINUOUS
 62
         7
100
AcDbCircle
 10
11.7456644259
 20
17.2596106857
 30
0.0
 40
0.2391273128
100
AcDbArc
 50
180.0
 51
270.2090995006
  0
LINE
  5
1B1
100
AcDbEntity
  8
1_000_329
  6
CONTINUOUS
 62
         7
100
AcDbLine
 10
13.2956644259
 20
17.0196106857
 30
0.0
 11
13.2947917387
 21
17.0204849653
 31
0.0
  0
LINE
  5
1B2
100
AcDbEntity
  8
1_000_329
  6
CONTINUOUS
 62
         7
100
AcDbLine
 10
13.5347917387
 20
17.2596106857
 30
0.0
 11
13.5347917387
 21
17.3696106857
 31
0.0
  0
LINE
  5
1B3
100
AcDbEntity
  8
1_000_329
  6
CONTINUOUS
 62
         7
100
AcDbLine
 10
13.2956644259
 20
17.6087379985
 30
0.0
 11
11.7456644259
 21
17.6087379985
 31
0.0
  0
LINE
  5
1B4
100
AcDbEntity
  8
1_000_329
  6
CONTINUOUS
 62
         7
100
AcDbLine
 10
13.2947917387
 20
17.0204849653
 30
0.0
 11
13.2947917387
 21
16.903377724
 31
0.0
  0
ARC
  5
1B5
100
AcDbEntity
  8
431077-040
  6
CONTINUOUS
 62
         7
100
AcDbCircle
 10
13.8626644259
 20
18.0089216827
 30
0.0
 40
0.1219565217
100
AcDbArc
 50
348.1710226891
 51
11.8289773109
  0
ARC
  5
1B6
100
AcDbEntity
  8
431077-040
  6
CONTINUOUS
 62
         7
100
AcDbCircle
 10
13.8626644259
 20
18.0089216827
 30
0.0
 40
0.155
100
AcDbArc
 50
9.2817990867
 51
170.7182009133
  0
ARC
  5
1B7
100
AcDbEntity
  8
431077-040
  6
CONTINUOUS
 62
         7
100
AcDbCircle
 10
13.8626644259
 20
18.0089216827
 30
0.0
 40
0.155
100
AcDbArc
 50
189.2817990867
 51
350.7182009133
  0
LINE
  5
1B8
100
AcDbEntity
  8
431077-040
  6
CONTINUOUS
 62
         7
100
AcDbLine
 10
14.0156350113
 20
17.9839216827
 30
0.0
 11
13.7096938405
 21
17.9839216827
 31
0.0
  0
ARC
  5
1B9
100
AcDbEntity
  8
431077-040
  6
CONTINUOUS
 62
         7
100
AcDbCircle
 10
13.8626644259
 20
18.0089216827
 30
0.0
 40
0.1219565217
100
AcDbArc
 50
168.1710226891
 51
191.8289773109
  0
LINE
  5
1BA
100
AcDbEntity
  8
431077-040
  6
CONTINUOUS
 62
         7
100
AcDbLine
 10
14.0156350113
 20
18.0339216827
 30
0.0
 11
13.7096938405
 21
18.0339216827
 31
0.0
  0
LINE
  5
1BB
100
AcDbEntity
  8
431077-040
  6
CONTINUOUS
 62
         7
100
AcDbLine
 10
11.3316350113
 20
17.9839216827
 30
0.0
 11
11.0256938405
 21
17.9839216827
 31
0.0
  0
ARC
  5
1BC
100
AcDbEntity
  8
431077-040
  6
CONTINUOUS
 62
         7
100
AcDbCircle
 10
11.1786644259
 20
18.0089216827
 30
0.0
 40
0.1219565217
100
AcDbArc
 50
168.1710226891
 51
191.8289773109
  0
LINE
  5
1BD
100
AcDbEntity
  8
431077-040
  6
CONTINUOUS
 62
         7
100
AcDbLine
 10
11.3316350113
 20
18.0339216827
 30
0.0
 11
11.0256938405
 21
18.0339216827
 31
0.0
  0
ARC
  5
1BE
100
AcDbEntity
  8
431077-040
  6
CONTINUOUS
 62
         7
100
AcDbCircle
 10
11.1786644259
 20
18.0089216827
 30
0.0
 40
0.155
100
AcDbArc
 50
9.2817990867
 51
170.7182009133
  0
ARC
  5
1BF
100
AcDbEntity
  8
431077-040
  6
CONTINUOUS
 62
         7
100
AcDbCircle
 10
11.1786644259
 20
18.0089216827
 30
0.0
 40
0.1219565217
100
AcDbArc
 50
348.1710226891
 51
11.8289773109
  0
ARC
  5
1C0
100
AcDbEntity
  8
431077-040
  6
CONTINUOUS
 62
         7
100
AcDbCircle
 10
11.1786644259
 20
18.0089216827
 30
0.0
 40
0.155
100
AcDbArc
 50
189.2817990867
 51
350.7182009133
  0
ARC
  5
1C1
100
AcDbEntity
  8
431077-040
  6
CONTINUOUS
 62
         7
100
AcDbCircle
 10
11.1786644259
 20
14.3569216827
 30
0.0
 40
0.1219565217
100
AcDbArc
 50
168.1710226891
 51
191.8289773109
  0
LINE
  5
1C2
100
AcDbEntity
  8
431077-040
  6
CONTINUOUS
 62
         7
100
AcDbLine
 10
11.3316350113
 20
14.3819216827
 30
0.0
 11
11.0256938405
 21
14.3819216827
 31
0.0
  0
ARC
  5
1C3
100
AcDbEntity
  8
431077-040
  6
CONTINUOUS
 62
         7
100
AcDbCircle
 10
11.1786644259
 20
14.3569216827
 30
0.0
 40
0.155
100
AcDbArc
 50
9.2817990867
 51
170.7182009133
  0
ARC
  5
1C4
100
AcDbEntity
  8
431077-040
  6
CONTINUOUS
 62
         7
100
AcDbCircle
 10
11.1786644259
 20
14.3569216827
 30
0.0
 40
0.155
100
AcDbArc
 50
189.2817990867
 51
350.7182009133
  0
ARC
  5
1C5
100
AcDbEntity
  8
431077-040
  6
CONTINUOUS
 62
         7
100
AcDbCircle
 10
11.1786644259
 20
14.3569216827
 30
0.0
 40
0.1219565217
100
AcDbArc
 50
348.1710226891
 51
11.8289773109
  0
LINE
  5
1C6
100
AcDbEntity
  8
431077-040
  6
CONTINUOUS
 62
         7
100
AcDbLine
 10
11.3316350113
 20
14.3319216827
 30
0.0
 11
11.0256938405
 21
14.3319216827
 31
0.0
  0
LINE
  5
1C7
100
AcDbEntity
  8
431077-040
  6
CONTINUOUS
 62
         7
100
AcDbLine
 10
14.0156350113
 20
14.3319216827
 30
0.0
 11
13.7096938405
 21
14.3319216827
 31
0.0
  0
ARC
  5
1C8
100
AcDbEntity
  8
431077-040
  6
CONTINUOUS
 62
         7
100
AcDbCircle
 10
13.8626644259
 20
14.3569216827
 30
0.0
 40
0.1219565217
100
AcDbArc
 50
168.1710226891
 51
191.8289773109
  0
LINE
  5
1C9
100
AcDbEntity
  8
431077-040
  6
CONTINUOUS
 62
         7
100
AcDbLine
 10
14.0156350113
 20
14.3819216827
 30
0.0
 11
13.7096938405
 21
14.3819216827
 31
0.0
  0
ARC
  5
1CA
100
AcDbEntity
  8
431077-040
  6
CONTINUOUS
 62
         7
100
AcDbCircle
 10
13.8626644259
 20
14.3569216827
 30
0.0
 40
0.1219565217
100
AcDbArc
 50
348.1710226891
 51
11.8289773109
  0
ARC
  5
1CB
100
AcDbEntity
  8
431077-040
  6
CONTINUOUS
 62
         7
100
AcDbCircle
 10
13.8626644259
 20
14.3569216827
 30
0.0
 40
0.155
100
AcDbArc
 50
9.2817990867
 51
170.7182009133
  0
ARC
  5
1CC
100
AcDbEntity
  8
431077-040
  6
CONTINUOUS
 62
         7
100
AcDbCircle
 10
13.8626644259
 20
14.3569216827
 30
0.0
 40
0.155
100
AcDbArc
 50
189.2817990867
 51
350.7182009133
  0
LINE
  5
1CD
100
AcDbEntity
  8
939005C
  6
CONTINUOUS
 62
         7
100
AcDbLine
 10
20.2847664735
 20
9.7152501782
 30
0.0
 11
24.8087664735
 21
9.7152501782
 31
0.0
  0
LINE
  5
1CE
100
AcDbEntity
  8
939005C
  6
CONTINUOUS
 62
         7
100
AcDbLine
 10
24.8087664735
 20
9.7152501782
 30
0.0
 11
24.8087664735
 21
10.4032501782
 31
0.0
  0
LINE
  5
1CF
100
AcDbEntity
  8
939005C
  6
CONTINUOUS
 62
         7
100
AcDbLine
 10
20.2847664735
 20
9.7152501782
 30
0.0
 11
20.2847664735
 21
10.4032501782
 31
0.0
  0
LINE
  5
1D0
100
AcDbEntity
  8
939005C
  6
CONTINUOUS
 62
         7
100
AcDbLine
 10
25.4367664735
 20
10.4652501782
 30
0.0
 11
25.1867664735
 21
10.5902501782
 31
0.0
  0
LINE
  5
1D1
100
AcDbEntity
  8
939005C
  6
CONTINUOUS
 62
         7
100
AcDbLine
 10
19.9067664735
 20
10.5902501782
 30
0.0
 11
19.6567664735
 21
10.4652501782
 31
0.0
  0
LINE
  5
1D2
100
AcDbEntity
  8
939005C
  6
CONTINUOUS
 62
         7
100
AcDbLine
 10
19.6567664735
 20
10.4032501782
 30
0.0
 11
25.4367664735
 21
10.4032501782
 31
0.0
  0
LINE
  5
1D3
100
AcDbEntity
  8
939005C
  6
CONTINUOUS
 62
         7
100
AcDbLine
 10
25.4367664735
 20
10.4652501782
 30
0.0
 11
25.4367664735
 21
10.4032501782
 31
0.0
  0
LINE
  5
1D4
100
AcDbEntity
  8
939005C
  6
CONTINUOUS
 62
         7
100
AcDbLine
 10
19.6567664735
 20
10.4652501782
 30
0.0
 11
19.6567664735
 21
10.4032501782
 31
0.0
  0
LINE
  5
1D5
100
AcDbEntity
  8
939005C
  6
CONTINUOUS
 62
         7
100
AcDbLine
 10
19.9067664735
 20
10.5902501782
 30
0.0
 11
25.1867664735
 21
10.5902501782
 31
0.0
  0
LINE
  5
1D6
100
AcDbEntity
  8
939005C
  6
CONTINUOUS
 62
         7
100
AcDbLine
 10
25.4367664735
 20
10.4652501782
 30
0.0
 11
19.6567664735
 21
10.4652501782
 31
0.0
  0
LINE
  5
1D7
100
AcDbEntity
  8
AC-MAB
  6
CONTINUOUS
 62
         7
100
AcDbLine
 10
23.6067664735
 20
9.5242501782
 30
0.0
 11
22.9067664735
 21
9.5242501782
 31
0.0
  0
LINE
  5
1D8
100
AcDbEntity
  8
AC-MAB
  6
CONTINUOUS
 62
         7
100
AcDbLine
 10
23.6067664735
 20
9.5242501782
 30
0.0
 11
23.6067664735
 21
9.7152501782
 31
0.0
  0
LINE
  5
1D9
100
AcDbEntity
  8
AC-MAB
  6
CONTINUOUS
 62
         7
100
AcDbLine
 10
22.9067664735
 20
9.5242501782
 30
0.0
 11
22.9067664735
 21
9.7152501782
 31
0.0
  0
LINE
  5
1DA
100
AcDbEntity
  8
AC-MAB
  6
CONTINUOUS
 62
         7
100
AcDbLine
 10
22.2067664735
 20
9.5242501782
 30
0.0
 11
21.5067664735
 21
9.5242501782
 31
0.0
  0
LINE
  5
1DB
100
AcDbEntity
  8
AC-MAB
  6
CONTINUOUS
 62
         7
100
AcDbLine
 10
21.5067664735
 20
9.5242501782
 30
0.0
 11
21.5067664735
 21
9.7152501782
 31
0.0
  0
LINE
  5
1DC
100
AcDbEntity
  8
AC-MAB
  6
CONTINUOUS
 62
         7
100
AcDbLine
 10
22.2067664735
 20
9.5242501782
 30
0.0
 11
22.2067664735
 21
9.7152501782
 31
0.0
  0
LINE
  5
1DD
100
AcDbEntity
  8
2A245
  6
CONTINUOUS
 62
         7
100
AcDbLine
 10
23.2492664735
 20
9.0892501782
 30
0.0
 11
23.2492664735
 21
9.1192501782
 31
0.0
  0
LINE
  5
1DE
100
AcDbEntity
  8
2A245
  6
CONTINUOUS
 62
         7
100
AcDbLine
 10
23.3492664735
 20
8.8592501782
 30
0.0
 11
23.3492664735
 21
8.7592501782
 31
0.0
  0
LINE
  5
1DF
100
AcDbEntity
  8
2A245
  6
CONTINUOUS
 62
         7
100
AcDbLine
 10
23.3492664735
 20
8.7592501782
 30
0.0
 11
23.0842664735
 21
8.7592501782
 31
0.0
  0
LINE
  5
1E0
100
AcDbEntity
  8
2A245
  6
CONTINUOUS
 62
         7
100
AcDbLine
 10
23.0492664735
 20
9.0892501782
 30
0.0
 11
23.0792664735
 21
9.0892501782
 31
0.0
  0
LINE
  5
1E1
100
AcDbEntity
  8
2A245
  6
CONTINUOUS
 62
         7
100
AcDbLine
 10
23.0792664735
 20
9.0892501782
 30
0.0
 11
23.0792664735
 21
8.8592501782
 31
0.0
  0
LINE
  5
1E2
100
AcDbEntity
  8
2A245
  6
CONTINUOUS
 62
         7
100
AcDbLine
 10
23.0842664735
 20
8.8592501782
 30
0.0
 11
23.2492664735
 21
8.8592501782
 31
0.0
  0
LINE
  5
1E3
100
AcDbEntity
  8
2A245
  6
CONTINUOUS
 62
         7
100
AcDbLine
 10
23.2492664735
 20
8.8592501782
 30
0.0
 11
23.2492664735
 21
9.0892501782
 31
0.0
  0
LINE
  5
1E4
100
AcDbEntity
  8
2A245
  6
CONTINUOUS
 62
         7
100
AcDbLine
 10
23.3142664735
 20
8.8592501782
 30
0.0
 11
23.3492664735
 21
8.8592501782
 31
0.0
  0
LINE
  5
1E5
100
AcDbEntity
  8
2A245
  6
CONTINUOUS
 62
         7
100
AcDbLine
 10
23.3142664735
 20
9.0892501782
 30
0.0
 11
23.3142664735
 21
8.8592501782
 31
0.0
  0
LINE
  5
1E6
100
AcDbEntity
  8
2A245
  6
CONTINUOUS
 62
         7
100
AcDbLine
 10
23.2492664735
 20
9.0892501782
 30
0.0
 11
23.3142664735
 21
9.0892501782
 31
0.0
  0
LINE
  5
1E7
100
AcDbEntity
  8
2A245
  6
CONTINUOUS
 62
         7
100
AcDbLine
 10
23.6492664735
 20
8.8592501782
 30
0.0
 11
23.6492664735
 21
8.7592501782
 31
0.0
  0
LINE
  5
1E8
100
AcDbEntity
  8
2A245
  6
CONTINUOUS
 62
         7
100
AcDbLine
 10
23.6492664735
 20
8.7592501782
 30
0.0
 11
24.0192664735
 21
8.7592501782
 31
0.0
  0
LINE
  5
1E9
100
AcDbEntity
  8
2A245
  6
CONTINUOUS
 62
         7
100
AcDbLine
 10
24.0192664735
 20
8.7592501782
 30
0.0
 11
24.0192664735
 21
8.8592501782
 31
0.0
  0
LINE
  5
1EA
100
AcDbEntity
  8
2A245
  6
CONTINUOUS
 62
         7
100
AcDbLine
 10
24.0192664735
 20
8.8592501782
 30
0.0
 11
23.9842664735
 21
8.8592501782
 31
0.0
  0
LINE
  5
1EB
100
AcDbEntity
  8
2A245
  6
CONTINUOUS
 62
         7
100
AcDbLine
 10
23.9842664735
 20
8.8592501782
 30
0.0
 11
23.9842664735
 21
9.0892501782
 31
0.0
  0
LINE
  5
1EC
100
AcDbEntity
  8
2A245
  6
CONTINUOUS
 62
         7
100
AcDbLine
 10
23.9842664735
 20
9.0892501782
 30
0.0
 11
23.9192664735
 21
9.0892501782
 31
0.0
  0
LINE
  5
1ED
100
AcDbEntity
  8
2A245
  6
CONTINUOUS
 62
         7
100
AcDbLine
 10
23.9192664735
 20
9.0892501782
 30
0.0
 11
23.9192664735
 21
8.8592501782
 31
0.0
  0
LINE
  5
1EE
100
AcDbEntity
  8
2A245
  6
CONTINUOUS
 62
         7
100
AcDbLine
 10
23.9192664735
 20
8.8592501782
 30
0.0
 11
23.7492664735
 21
8.8592501782
 31
0.0
  0
LINE
  5
1EF
100
AcDbEntity
  8
2A245
  6
CONTINUOUS
 62
         7
100
AcDbLine
 10
23.7492664735
 20
8.8592501782
 30
0.0
 11
23.7492664735
 21
9.0892501782
 31
0.0
  0
LINE
  5
1F0
100
AcDbEntity
  8
2A245
  6
CONTINUOUS
 62
         7
100
AcDbLine
 10
23.7492664735
 20
9.0892501782
 30
0.0
 11
23.6842664735
 21
9.0892501782
 31
0.0
  0
LINE
  5
1F1
100
AcDbEntity
  8
2A245
  6
CONTINUOUS
 62
         7
100
AcDbLine
 10
23.6842664735
 20
9.0892501782
 30
0.0
 11
23.6842664735
 21
8.8592501782
 31
0.0
  0
LINE
  5
1F2
100
AcDbEntity
  8
2A245
  6
CONTINUOUS
 62
         7
100
AcDbLine
 10
23.6842664735
 20
8.8592501782
 30
0.0
 11
23.6492664735
 21
8.8592501782
 31
0.0
  0
LINE
  5
1F3
100
AcDbEntity
  8
2A245
  6
CONTINUOUS
 62
         7
100
AcDbLine
 10
23.0442664735
 20
9.4892501782
 30
0.0
 11
23.0442664735
 21
9.2609615539
 31
0.0
  0
LINE
  5
1F4
100
AcDbEntity
  8
2A245
  6
CONTINUOUS
 62
         7
100
AcDbLine
 10
23.0442664735
 20
9.2609615539
 30
0.0
 11
23.0792664735
 21
9.2192501782
 31
0.0
  0
LINE
  5
1F5
100
AcDbEntity
  8
2A245
  6
CONTINUOUS
 62
         7
100
AcDbLine
 10
23.0792664735
 20
9.2192501782
 30
0.0
 11
23.0442664735
 21
9.1775388024
 31
0.0
  0
LINE
  5
1F6
100
AcDbEntity
  8
2A245
  6
CONTINUOUS
 62
         7
100
AcDbLine
 10
23.0442664735
 20
9.1775388024
 30
0.0
 11
23.0442664735
 21
9.1192501782
 31
0.0
  0
LINE
  5
1F7
100
AcDbEntity
  8
2A245
  6
CONTINUOUS
 62
         7
100
AcDbLine
 10
23.0442664735
 20
9.1192501782
 30
0.0
 11
23.0792664735
 21
9.1192501782
 31
0.0
  0
LINE
  5
1F8
100
AcDbEntity
  8
2A245
  6
CONTINUOUS
 62
         7
100
AcDbLine
 10
23.0792664735
 20
9.1192501782
 30
0.0
 11
23.0792664735
 21
9.0892501782
 31
0.0
  0
LINE
  5
1F9
100
AcDbEntity
  8
2A245
  6
CONTINUOUS
 62
         7
100
AcDbLine
 10
23.2492664735
 20
9.1192501782
 30
0.0
 11
23.2842664735
 21
9.1192501782
 31
0.0
  0
LINE
  5
1FA
100
AcDbEntity
  8
2A245
  6
CONTINUOUS
 62
         7
100
AcDbLine
 10
23.2842664735
 20
9.1192501782
 30
0.0
 11
23.2842664735
 21
9.1775388024
 31
0.0
  0
LINE
  5
1FB
100
AcDbEntity
  8
2A245
  6
CONTINUOUS
 62
         7
100
AcDbLine
 10
23.2842664735
 20
9.1775388024
 30
0.0
 11
23.2492664735
 21
9.2192501782
 31
0.0
  0
LINE
  5
1FC
100
AcDbEntity
  8
2A245
  6
CONTINUOUS
 62
         7
100
AcDbLine
 10
23.2492664735
 20
9.2192501782
 30
0.0
 11
23.2842664735
 21
9.2609615539
 31
0.0
  0
LINE
  5
1FD
100
AcDbEntity
  8
2A245
  6
CONTINUOUS
 62
         7
100
AcDbLine
 10
23.2842664735
 20
9.2609615539
 30
0.0
 11
23.2842664735
 21
9.4892501782
 31
0.0
  0
LINE
  5
1FE
100
AcDbEntity
  8
2A245
  6
CONTINUOUS
 62
         7
100
AcDbLine
 10
23.9542664735
 20
9.2609615539
 30
0.0
 11
23.9192664735
 21
9.2192501782
 31
0.0
  0
LINE
  5
1FF
100
AcDbEntity
  8
2A245
  6
CONTINUOUS
 62
         7
100
AcDbLine
 10
23.9542664735
 20
9.4892501782
 30
0.0
 11
23.9542664735
 21
9.2609615539
 31
0.0
  0
LINE
  5
200
100
AcDbEntity
  8
2A245
  6
CONTINUOUS
 62
         7
100
AcDbLine
 10
23.9542664735
 20
9.1192501782
 30
0.0
 11
23.9192664735
 21
9.1192501782
 31
0.0
  0
LINE
  5
201
100
AcDbEntity
  8
2A245
  6
CONTINUOUS
 62
         7
100
AcDbLine
 10
23.9542664735
 20
9.1775388024
 30
0.0
 11
23.9542664735
 21
9.1192501782
 31
0.0
  0
LINE
  5
202
100
AcDbEntity
  8
2A245
  6
CONTINUOUS
 62
         7
100
AcDbLine
 10
23.9192664735
 20
9.2192501782
 30
0.0
 11
23.9542664735
 21
9.1775388024
 31
0.0
  0
LINE
  5
203
100
AcDbEntity
  8
2A245
  6
CONTINUOUS
 62
         7
100
AcDbLine
 10
23.7492664735
 20
9.1192501782
 30
0.0
 11
23.7142664735
 21
9.1192501782
 31
0.0
  0
LINE
  5
204
100
AcDbEntity
  8
2A245
  6
CONTINUOUS
 62
         7
100
AcDbLine
 10
23.7492664735
 20
9.0892501782
 30
0.0
 11
23.7492664735
 21
9.1192501782
 31
0.0
  0
LINE
  5
205
100
AcDbEntity
  8
2A245
  6
CONTINUOUS
 62
         7
100
AcDbLine
 10
23.9192664735
 20
9.1192501782
 30
0.0
 11
23.9192664735
 21
9.0892501782
 31
0.0
  0
LINE
  5
206
100
AcDbEntity
  8
2A245
  6
CONTINUOUS
 62
         7
100
AcDbLine
 10
23.7492664735
 20
9.2192501782
 30
0.0
 11
23.7142664735
 21
9.2609615539
 31
0.0
  0
LINE
  5
207
100
AcDbEntity
  8
2A245
  6
CONTINUOUS
 62
         7
100
AcDbLine
 10
23.7142664735
 20
9.2609615539
 30
0.0
 11
23.7142664735
 21
9.4892501782
 31
0.0
  0
LINE
  5
208
100
AcDbEntity
  8
2A245
  6
CONTINUOUS
 62
         7
100
AcDbLine
 10
23.7142664735
 20
9.1775388024
 30
0.0
 11
23.7492664735
 21
9.2192501782
 31
0.0
  0
LINE
  5
209
100
AcDbEntity
  8
2A245
  6
CONTINUOUS
 62
         7
100
AcDbLine
 10
23.7142664735
 20
9.1192501782
 30
0.0
 11
23.7142664735
 21
9.1775388024
 31
0.0
  0
LINE
  5
20A
100
AcDbEntity
  8
2A245
  6
CONTINUOUS
 62
         7
100
AcDbLine
 10
23.8417664735
 20
9.5542501782
 30
0.0
 11
23.9592664735
 21
9.5542501782
 31
0.0
  0
LINE
  5
20B
100
AcDbEntity
  8
2A245
  6
CONTINUOUS
 62
         7
100
AcDbLine
 10
23.0392664735
 20
9.4892501782
 30
0.0
 11
23.9592664735
 21
9.4892501782
 31
0.0
  0
LINE
  5
20C
100
AcDbEntity
  8
2A245
  6
CONTINUOUS
 62
         7
100
AcDbLine
 10
23.9592664735
 20
9.4892501782
 30
0.0
 11
23.9592664735
 21
9.5542501782
 31
0.0
  0
LINE
  5
20D
100
AcDbEntity
  8
2A245
  6
CONTINUOUS
 62
         7
100
AcDbLine
 10
23.0392664735
 20
9.4892501782
 30
0.0
 11
23.0392664735
 21
9.5242501782
 31
0.0
  0
LINE
  5
20E
100
AcDbEntity
  8
2A245
  6
CONTINUOUS
 62
         7
100
AcDbLine
 10
23.9517664735
 20
9.5542501782
 30
0.0
 11
23.9517664735
 21
9.7152501782
 31
0.0
  0
LINE
  5
20F
100
AcDbEntity
  8
2A245
  6
CONTINUOUS
 62
         7
100
AcDbLine
 10
23.8417664735
 20
9.5542501782
 30
0.0
 11
23.8417664735
 21
9.7152501782
 31
0.0
  0
LINE
  5
210
100
AcDbEntity
  8
2A245
  6
CONTINUOUS
 62
         7
100
AcDbLine
 10
23.6067664735
 20
9.5542501782
 30
0.0
 11
23.8417664735
 21
9.5542501782
 31
0.0
  0
LINE
  5
211
100
AcDbEntity
  8
2A245
  6
CONTINUOUS
 62
         7
100
AcDbLine
 10
22.3142664735
 20
9.0892501782
 30
0.0
 11
22.3142664735
 21
9.1192501782
 31
0.0
  0
LINE
  5
212
100
AcDbEntity
  8
2A245
  6
CONTINUOUS
 62
         7
100
AcDbLine
 10
22.4142664735
 20
8.8592501782
 30
0.0
 11
22.4142664735
 21
8.7592501782
 31
0.0
  0
LINE
  5
213
100
AcDbEntity
  8
2A245
  6
CONTINUOUS
 62
         7
100
AcDbLine
 10
22.4142664735
 20
8.7592501782
 30
0.0
 11
22.1492664735
 21
8.7592501782
 31
0.0
  0
LINE
  5
214
100
AcDbEntity
  8
2A245
  6
CONTINUOUS
 62
         7
100
AcDbLine
 10
22.1492664735
 20
8.8592501782
 30
0.0
 11
22.3142664735
 21
8.8592501782
 31
0.0
  0
LINE
  5
215
100
AcDbEntity
  8
2A245
  6
CONTINUOUS
 62
         7
100
AcDbLine
 10
22.1442664735
 20
9.0892501782
 30
0.0
 11
22.1442664735
 21
8.8592501782
 31
0.0
  0
LINE
  5
216
100
AcDbEntity
  8
2A245
  6
CONTINUOUS
 62
         7
100
AcDbLine
 10
22.1142664735
 20
9.0892501782
 30
0.0
 11
22.1442664735
 21
9.0892501782
 31
0.0
  0
LINE
  5
217
100
AcDbEntity
  8
2A245
  6
CONTINUOUS
 62
         7
100
AcDbLine
 10
22.3142664735
 20
8.8592501782
 30
0.0
 11
22.3142664735
 21
9.0892501782
 31
0.0
  0
LINE
  5
218
100
AcDbEntity
  8
2A245
  6
CONTINUOUS
 62
         7
100
AcDbLine
 10
22.3792664735
 20
8.8592501782
 30
0.0
 11
22.4142664735
 21
8.8592501782
 31
0.0
  0
LINE
  5
219
100
AcDbEntity
  8
2A245
  6
CONTINUOUS
 62
         7
100
AcDbLine
 10
22.3792664735
 20
9.0892501782
 30
0.0
 11
22.3792664735
 21
8.8592501782
 31
0.0
  0
LINE
  5
21A
100
AcDbEntity
  8
2A245
  6
CONTINUOUS
 62
         7
100
AcDbLine
 10
22.3142664735
 20
9.0892501782
 30
0.0
 11
22.3792664735
 21
9.0892501782
 31
0.0
  0
LINE
  5
21B
100
AcDbEntity
  8
2A245
  6
CONTINUOUS
 62
         7
100
AcDbLine
 10
22.7142664735
 20
8.8592501782
 30
0.0
 11
22.7142664735
 21
8.7592501782
 31
0.0
  0
LINE
  5
21C
100
AcDbEntity
  8
2A245
  6
CONTINUOUS
 62
         7
100
AcDbLine
 10
22.7142664735
 20
8.7592501782
 30
0.0
 11
23.0842664735
 21
8.7592501782
 31
0.0
  0
LINE
  5
21D
100
AcDbEntity
  8
2A245
  6
CONTINUOUS
 62
         7
100
AcDbLine
 10
23.0842664735
 20
8.7592501782
 30
0.0
 11
23.0842664735
 21
8.8592501782
 31
0.0
  0
LINE
  5
21E
100
AcDbEntity
  8
2A245
  6
CONTINUOUS
 62
         7
100
AcDbLine
 10
23.0842664735
 20
8.8592501782
 30
0.0
 11
23.0492664735
 21
8.8592501782
 31
0.0
  0
LINE
  5
21F
100
AcDbEntity
  8
2A245
  6
CONTINUOUS
 62
         7
100
AcDbLine
 10
23.0492664735
 20
8.8592501782
 30
0.0
 11
23.0492664735
 21
9.0892501782
 31
0.0
  0
LINE
  5
220
100
AcDbEntity
  8
2A245
  6
CONTINUOUS
 62
         7
100
AcDbLine
 10
23.0492664735
 20
9.0892501782
 30
0.0
 11
22.9842664735
 21
9.0892501782
 31
0.0
  0
LINE
  5
221
100
AcDbEntity
  8
2A245
  6
CONTINUOUS
 62
         7
100
AcDbLine
 10
22.9842664735
 20
9.0892501782
 30
0.0
 11
22.9842664735
 21
8.8592501782
 31
0.0
  0
LINE
  5
222
100
AcDbEntity
  8
2A245
  6
CONTINUOUS
 62
         7
100
AcDbLine
 10
22.9842664735
 20
8.8592501782
 30
0.0
 11
22.8142664735
 21
8.8592501782
 31
0.0
  0
LINE
  5
223
100
AcDbEntity
  8
2A245
  6
CONTINUOUS
 62
         7
100
AcDbLine
 10
22.8142664735
 20
8.8592501782
 30
0.0
 11
22.8142664735
 21
9.0892501782
 31
0.0
  0
LINE
  5
224
100
AcDbEntity
  8
2A245
  6
CONTINUOUS
 62
         7
100
AcDbLine
 10
22.8142664735
 20
9.0892501782
 30
0.0
 11
22.7492664735
 21
9.0892501782
 31
0.0
  0
LINE
  5
225
100
AcDbEntity
  8
2A245
  6
CONTINUOUS
 62
         7
100
AcDbLine
 10
22.7492664735
 20
9.0892501782
 30
0.0
 11
22.7492664735
 21
8.8592501782
 31
0.0
  0
LINE
  5
226
100
AcDbEntity
  8
2A245
  6
CONTINUOUS
 62
         7
100
AcDbLine
 10
22.7492664735
 20
8.8592501782
 30
0.0
 11
22.7142664735
 21
8.8592501782
 31
0.0
  0
LINE
  5
227
100
AcDbEntity
  8
2A245
  6
CONTINUOUS
 62
         7
100
AcDbLine
 10
22.1092664735
 20
9.4892501782
 30
0.0
 11
22.1092664735
 21
9.2609615539
 31
0.0
  0
LINE
  5
228
100
AcDbEntity
  8
2A245
  6
CONTINUOUS
 62
         7
100
AcDbLine
 10
22.1092664735
 20
9.2609615539
 30
0.0
 11
22.1442664735
 21
9.2192501782
 31
0.0
  0
LINE
  5
229
100
AcDbEntity
  8
2A245
  6
CONTINUOUS
 62
         7
100
AcDbLine
 10
22.1442664735
 20
9.2192501782
 30
0.0
 11
22.1092664735
 21
9.1775388024
 31
0.0
  0
LINE
  5
22A
100
AcDbEntity
  8
2A245
  6
CONTINUOUS
 62
         7
100
AcDbLine
 10
22.1092664735
 20
9.1775388024
 30
0.0
 11
22.1092664735
 21
9.1192501782
 31
0.0
  0
LINE
  5
22B
100
AcDbEntity
  8
2A245
  6
CONTINUOUS
 62
         7
100
AcDbLine
 10
22.1092664735
 20
9.1192501782
 30
0.0
 11
22.1442664735
 21
9.1192501782
 31
0.0
  0
LINE
  5
22C
100
AcDbEntity
  8
2A245
  6
CONTINUOUS
 62
         7
100
AcDbLine
 10
22.1442664735
 20
9.1192501782
 30
0.0
 11
22.1442664735
 21
9.0892501782
 31
0.0
  0
LINE
  5
22D
100
AcDbEntity
  8
2A245
  6
CONTINUOUS
 62
         7
100
AcDbLine
 10
22.3492664735
 20
9.1192501782
 30
0.0
 11
22.3492664735
 21
9.1775388024
 31
0.0
  0
LINE
  5
22E
100
AcDbEntity
  8
2A245
  6
CONTINUOUS
 62
         7
100
AcDbLine
 10
22.3492664735
 20
9.2609615539
 30
0.0
 11
22.3492664735
 21
9.4892501782
 31
0.0
  0
LINE
  5
22F
100
AcDbEntity
  8
2A245
  6
CONTINUOUS
 62
         7
100
AcDbLine
 10
22.3492664735
 20
9.1775388024
 30
0.0
 11
22.3142664735
 21
9.2192501782
 31
0.0
  0
LINE
  5
230
100
AcDbEntity
  8
2A245
  6
CONTINUOUS
 62
         7
100
AcDbLine
 10
22.3142664735
 20
9.2192501782
 30
0.0
 11
22.3492664735
 21
9.2609615539
 31
0.0
  0
LINE
  5
231
100
AcDbEntity
  8
2A245
  6
CONTINUOUS
 62
         7
100
AcDbLine
 10
22.3142664735
 20
9.1192501782
 30
0.0
 11
22.3492664735
 21
9.1192501782
 31
0.0
  0
LINE
  5
232
100
AcDbEntity
  8
2A245
  6
CONTINUOUS
 62
         7
100
AcDbLine
 10
23.0192664735
 20
9.4892501782
 30
0.0
 11
23.0192664735
 21
9.2609615539
 31
0.0
  0
LINE
  5
233
100
AcDbEntity
  8
2A245
  6
CONTINUOUS
 62
         7
100
AcDbLine
 10
23.0192664735
 20
9.2609615539
 30
0.0
 11
22.9842664735
 21
9.2192501782
 31
0.0
  0
LINE
  5
234
100
AcDbEntity
  8
2A245
  6
CONTINUOUS
 62
         7
100
AcDbLine
 10
23.0192664735
 20
9.1192501782
 30
0.0
 11
22.9842664735
 21
9.1192501782
 31
0.0
  0
LINE
  5
235
100
AcDbEntity
  8
2A245
  6
CONTINUOUS
 62
         7
100
AcDbLine
 10
23.0192664735
 20
9.1775388024
 30
0.0
 11
23.0192664735
 21
9.1192501782
 31
0.0
  0
LINE
  5
236
100
AcDbEntity
  8
2A245
  6
CONTINUOUS
 62
         7
100
AcDbLine
 10
22.9842664735
 20
9.2192501782
 30
0.0
 11
23.0192664735
 21
9.1775388024
 31
0.0
  0
LINE
  5
237
100
AcDbEntity
  8
2A245
  6
CONTINUOUS
 62
         7
100
AcDbLine
 10
22.8142664735
 20
9.0892501782
 30
0.0
 11
22.8142664735
 21
9.1192501782
 31
0.0
  0
LINE
  5
238
100
AcDbEntity
  8
2A245
  6
CONTINUOUS
 62
         7
100
AcDbLine
 10
22.9842664735
 20
9.1192501782
 30
0.0
 11
22.9842664735
 21
9.0892501782
 31
0.0
  0
LINE
  5
239
100
AcDbEntity
  8
2A245
  6
CONTINUOUS
 62
         7
100
AcDbLine
 10
22.7792664735
 20
9.1775388024
 30
0.0
 11
22.8142664735
 21
9.2192501782
 31
0.0
  0
LINE
  5
23A
100
AcDbEntity
  8
2A245
  6
CONTINUOUS
 62
         7
100
AcDbLine
 10
22.8142664735
 20
9.2192501782
 30
0.0
 11
22.7792664735
 21
9.2609615539
 31
0.0
  0
LINE
  5
23B
100
AcDbEntity
  8
2A245
  6
CONTINUOUS
 62
         7
100
AcDbLine
 10
22.7792664735
 20
9.1192501782
 30
0.0
 11
22.7792664735
 21
9.1775388024
 31
0.0
  0
LINE
  5
23C
100
AcDbEntity
  8
2A245
  6
CONTINUOUS
 62
         7
100
AcDbLine
 10
22.8142664735
 20
9.1192501782
 30
0.0
 11
22.7792664735
 21
9.1192501782
 31
0.0
  0
LINE
  5
23D
100
AcDbEntity
  8
2A245
  6
CONTINUOUS
 62
         7
100
AcDbLine
 10
22.7792664735
 20
9.2609615539
 30
0.0
 11
22.7792664735
 21
9.4892501782
 31
0.0
  0
LINE
  5
23E
100
AcDbEntity
  8
2A245
  6
CONTINUOUS
 62
         7
100
AcDbLine
 10
22.1042664735
 20
9.4892501782
 30
0.0
 11
23.0242664735
 21
9.4892501782
 31
0.0
  0
LINE
  5
23F
100
AcDbEntity
  8
2A245
  6
CONTINUOUS
 62
         7
100
AcDbLine
 10
22.1042664735
 20
9.4892501782
 30
0.0
 11
22.1042664735
 21
9.5242501782
 31
0.0
  0
LINE
  5
240
100
AcDbEntity
  8
2A245
  6
CONTINUOUS
 62
         7
100
AcDbLine
 10
23.0242664735
 20
9.4892501782
 30
0.0
 11
23.0242664735
 21
9.5242501782
 31
0.0
  0
LINE
  5
241
100
AcDbEntity
  8
2A245
  6
CONTINUOUS
 62
         7
100
AcDbLine
 10
22.2067664735
 20
9.5542501782
 30
0.0
 11
22.9067664735
 21
9.5542501782
 31
0.0
  0
LINE
  5
242
100
AcDbEntity
  8
2A245
  6
CONTINUOUS
 62
         7
100
AcDbLine
 10
21.3792664735
 20
9.0892501782
 30
0.0
 11
21.3792664735
 21
9.1192501782
 31
0.0
  0
LINE
  5
243
100
AcDbEntity
  8
2A245
  6
CONTINUOUS
 62
         7
100
AcDbLine
 10
21.4792664735
 20
8.8592501782
 30
0.0
 11
21.4792664735
 21
8.7592501782
 31
0.0
  0
LINE
  5
244
100
AcDbEntity
  8
2A245
  6
CONTINUOUS
 62
         7
100
AcDbLine
 10
21.4792664735
 20
8.7592501782
 30
0.0
 11
21.1092664735
 21
8.7592501782
 31
0.0
  0
LINE
  5
245
100
AcDbEntity
  8
2A245
  6
CONTINUOUS
 62
         7
100
AcDbLine
 10
21.1092664735
 20
8.7592501782
 30
0.0
 11
21.1092664735
 21
8.8592501782
 31
0.0
  0
LINE
  5
246
100
AcDbEntity
  8
2A245
  6
CONTINUOUS
 62
         7
100
AcDbLine
 10
21.2092664735
 20
9.0892501782
 30
0.0
 11
21.2092664735
 21
8.8592501782
 31
0.0
  0
LINE
  5
247
100
AcDbEntity
  8
2A245
  6
CONTINUOUS
 62
         7
100
AcDbLine
 10
21.1442664735
 20
9.0892501782
 30
0.0
 11
21.2092664735
 21
9.0892501782
 31
0.0
  0
LINE
  5
248
100
AcDbEntity
  8
2A245
  6
CONTINUOUS
 62
         7
100
AcDbLine
 10
21.1442664735
 20
8.8592501782
 30
0.0
 11
21.1442664735
 21
9.0892501782
 31
0.0
  0
LINE
  5
249
100
AcDbEntity
  8
2A245
  6
CONTINUOUS
 62
         7
100
AcDbLine
 10
21.1092664735
 20
8.8592501782
 30
0.0
 11
21.1442664735
 21
8.8592501782
 31
0.0
  0
LINE
  5
24A
100
AcDbEntity
  8
2A245
  6
CONTINUOUS
 62
         7
100
AcDbLine
 10
21.4442664735
 20
9.0892501782
 30
0.0
 11
21.4442664735
 21
8.8592501782
 31
0.0
  0
LINE
  5
24B
100
AcDbEntity
  8
2A245
  6
CONTINUOUS
 62
         7
100
AcDbLine
 10
21.3792664735
 20
9.0892501782
 30
0.0
 11
21.4442664735
 21
9.0892501782
 31
0.0
  0
LINE
  5
24C
100
AcDbEntity
  8
2A245
  6
CONTINUOUS
 62
         7
100
AcDbLine
 10
21.3792664735
 20
8.8592501782
 30
0.0
 11
21.3792664735
 21
9.0892501782
 31
0.0
  0
LINE
  5
24D
100
AcDbEntity
  8
2A245
  6
CONTINUOUS
 62
         7
100
AcDbLine
 10
21.4442664735
 20
8.8592501782
 30
0.0
 11
21.4792664735
 21
8.8592501782
 31
0.0
  0
LINE
  5
24E
100
AcDbEntity
  8
2A245
  6
CONTINUOUS
 62
         7
100
AcDbLine
 10
21.2092664735
 20
8.8592501782
 30
0.0
 11
21.3792664735
 21
8.8592501782
 31
0.0
  0
LINE
  5
24F
100
AcDbEntity
  8
2A245
  6
CONTINUOUS
 62
         7
100
AcDbLine
 10
21.7792664735
 20
8.8592501782
 30
0.0
 11
21.7792664735
 21
8.7592501782
 31
0.0
  0
LINE
  5
250
100
AcDbEntity
  8
2A245
  6
CONTINUOUS
 62
         7
100
AcDbLine
 10
22.1492664735
 20
8.7592501782
 30
0.0
 11
22.1492664735
 21
8.8592501782
 31
0.0
  0
LINE
  5
251
100
AcDbEntity
  8
2A245
  6
CONTINUOUS
 62
         7
100
AcDbLine
 10
21.7792664735
 20
8.7592501782
 30
0.0
 11
22.1492664735
 21
8.7592501782
 31
0.0
  0
LINE
  5
252
100
AcDbEntity
  8
2A245
  6
CONTINUOUS
 62
         7
100
AcDbLine
 10
22.1492664735
 20
8.8592501782
 30
0.0
 11
22.1142664735
 21
8.8592501782
 31
0.0
  0
LINE
  5
253
100
AcDbEntity
  8
2A245
  6
CONTINUOUS
 62
         7
100
AcDbLine
 10
22.1142664735
 20
8.8592501782
 30
0.0
 11
22.1142664735
 21
9.0892501782
 31
0.0
  0
LINE
  5
254
100
AcDbEntity
  8
2A245
  6
CONTINUOUS
 62
         7
100
AcDbLine
 10
22.1142664735
 20
9.0892501782
 30
0.0
 11
22.0492664735
 21
9.0892501782
 31
0.0
  0
LINE
  5
255
100
AcDbEntity
  8
2A245
  6
CONTINUOUS
 62
         7
100
AcDbLine
 10
21.8792664735
 20
8.8592501782
 30
0.0
 11
21.8792664735
 21
9.0892501782
 31
0.0
  0
LINE
  5
256
100
AcDbEntity
  8
2A245
  6
CONTINUOUS
 62
         7
100
AcDbLine
 10
22.0492664735
 20
9.0892501782
 30
0.0
 11
22.0492664735
 21
8.8592501782
 31
0.0
  0
LINE
  5
257
100
AcDbEntity
  8
2A245
  6
CONTINUOUS
 62
         7
100
AcDbLine
 10
22.0492664735
 20
8.8592501782
 30
0.0
 11
21.8792664735
 21
8.8592501782
 31
0.0
  0
LINE
  5
258
100
AcDbEntity
  8
2A245
  6
CONTINUOUS
 62
         7
100
AcDbLine
 10
21.8142664735
 20
9.0892501782
 30
0.0
 11
21.8142664735
 21
8.8592501782
 31
0.0
  0
LINE
  5
259
100
AcDbEntity
  8
2A245
  6
CONTINUOUS
 62
         7
100
AcDbLine
 10
21.8792664735
 20
9.0892501782
 30
0.0
 11
21.8142664735
 21
9.0892501782
 31
0.0
  0
LINE
  5
25A
100
AcDbEntity
  8
2A245
  6
CONTINUOUS
 62
         7
100
AcDbLine
 10
21.8142664735
 20
8.8592501782
 30
0.0
 11
21.7792664735
 21
8.8592501782
 31
0.0
  0
LINE
  5
25B
100
AcDbEntity
  8
2A245
  6
CONTINUOUS
 62
         7
100
AcDbLine
 10
21.1742664735
 20
9.1192501782
 30
0.0
 11
21.2092664735
 21
9.1192501782
 31
0.0
  0
LINE
  5
25C
100
AcDbEntity
  8
2A245
  6
CONTINUOUS
 62
         7
100
AcDbLine
 10
21.1742664735
 20
9.1775388024
 30
0.0
 11
21.1742664735
 21
9.1192501782
 31
0.0
  0
LINE
  5
25D
100
AcDbEntity
  8
2A245
  6
CONTINUOUS
 62
         7
100
AcDbLine
 10
21.1742664735
 20
9.2609615539
 30
0.0
 11
21.2092664735
 21
9.2192501782
 31
0.0
  0
LINE
  5
25E
100
AcDbEntity
  8
2A245
  6
CONTINUOUS
 62
         7
100
AcDbLine
 10
21.1742664735
 20
9.4892501782
 30
0.0
 11
21.1742664735
 21
9.2609615539
 31
0.0
  0
LINE
  5
25F
100
AcDbEntity
  8
2A245
  6
CONTINUOUS
 62
         7
100
AcDbLine
 10
21.2092664735
 20
9.2192501782
 30
0.0
 11
21.1742664735
 21
9.1775388024
 31
0.0
  0
LINE
  5
260
100
AcDbEntity
  8
2A245
  6
CONTINUOUS
 62
         7
100
AcDbLine
 10
21.2092664735
 20
9.1192501782
 30
0.0
 11
21.2092664735
 21
9.0892501782
 31
0.0
  0
LINE
  5
261
100
AcDbEntity
  8
2A245
  6
CONTINUOUS
 62
         7
100
AcDbLine
 10
21.3792664735
 20
9.1192501782
 30
0.0
 11
21.4142664735
 21
9.1192501782
 31
0.0
  0
LINE
  5
262
100
AcDbEntity
  8
2A245
  6
CONTINUOUS
 62
         7
100
AcDbLine
 10
21.3792664735
 20
9.2192501782
 30
0.0
 11
21.4142664735
 21
9.2609615539
 31
0.0
  0
LINE
  5
263
100
AcDbEntity
  8
2A245
  6
CONTINUOUS
 62
         7
100
AcDbLine
 10
21.4142664735
 20
9.1192501782
 30
0.0
 11
21.4142664735
 21
9.1775388024
 31
0.0
  0
LINE
  5
264
100
AcDbEntity
  8
2A245
  6
CONTINUOUS
 62
         7
100
AcDbLine
 10
21.4142664735
 20
9.1775388024
 30
0.0
 11
21.3792664735
 21
9.2192501782
 31
0.0
  0
LINE
  5
265
100
AcDbEntity
  8
2A245
  6
CONTINUOUS
 62
         7
100
AcDbLine
 10
21.4142664735
 20
9.2609615539
 30
0.0
 11
21.4142664735
 21
9.4892501782
 31
0.0
  0
LINE
  5
266
100
AcDbEntity
  8
2A245
  6
CONTINUOUS
 62
         7
100
AcDbLine
 10
22.0492664735
 20
9.2192501782
 30
0.0
 11
22.0842664735
 21
9.1775388024
 31
0.0
  0
LINE
  5
267
100
AcDbEntity
  8
2A245
  6
CONTINUOUS
 62
         7
100
AcDbLine
 10
22.0842664735
 20
9.1775388024
 30
0.0
 11
22.0842664735
 21
9.1192501782
 31
0.0
  0
LINE
  5
268
100
AcDbEntity
  8
2A245
  6
CONTINUOUS
 62
         7
100
AcDbLine
 10
22.0842664735
 20
9.2609615539
 30
0.0
 11
22.0492664735
 21
9.2192501782
 31
0.0
  0
LINE
  5
269
100
AcDbEntity
  8
2A245
  6
CONTINUOUS
 62
         7
100
AcDbLine
 10
22.0842664735
 20
9.4892501782
 30
0.0
 11
22.0842664735
 21
9.2609615539
 31
0.0
  0
LINE
  5
26A
100
AcDbEntity
  8
2A245
  6
CONTINUOUS
 62
         7
100
AcDbLine
 10
21.8792664735
 20
9.0892501782
 30
0.0
 11
21.8792664735
 21
9.1192501782
 31
0.0
  0
LINE
  5
26B
100
AcDbEntity
  8
2A245
  6
CONTINUOUS
 62
         7
100
AcDbLine
 10
22.0842664735
 20
9.1192501782
 30
0.0
 11
22.0492664735
 21
9.1192501782
 31
0.0
  0
LINE
  5
26C
100
AcDbEntity
  8
2A245
  6
CONTINUOUS
 62
         7
100
AcDbLine
 10
22.0492664735
 20
9.1192501782
 30
0.0
 11
22.0492664735
 21
9.0892501782
 31
0.0
  0
LINE
  5
26D
100
AcDbEntity
  8
2A245
  6
CONTINUOUS
 62
         7
100
AcDbLine
 10
21.8792664735
 20
9.1192501782
 30
0.0
 11
21.8442664735
 21
9.1192501782
 31
0.0
  0
LINE
  5
26E
100
AcDbEntity
  8
2A245
  6
CONTINUOUS
 62
         7
100
AcDbLine
 10
21.8792664735
 20
9.2192501782
 30
0.0
 11
21.8442664735
 21
9.2609615539
 31
0.0
  0
LINE
  5
26F
100
AcDbEntity
  8
2A245
  6
CONTINUOUS
 62
         7
100
AcDbLine
 10
21.8442664735
 20
9.1775388024
 30
0.0
 11
21.8792664735
 21
9.2192501782
 31
0.0
  0
LINE
  5
270
100
AcDbEntity
  8
2A245
  6
CONTINUOUS
 62
         7
100
AcDbLine
 10
21.8442664735
 20
9.1192501782
 30
0.0
 11
21.8442664735
 21
9.1775388024
 31
0.0
  0
LINE
  5
271
100
AcDbEntity
  8
2A245
  6
CONTINUOUS
 62
         7
100
AcDbLine
 10
21.8442664735
 20
9.2609615539
 30
0.0
 11
21.8442664735
 21
9.4892501782
 31
0.0
  0
LINE
  5
272
100
AcDbEntity
  8
2A245
  6
CONTINUOUS
 62
         7
100
AcDbLine
 10
21.1692664735
 20
9.5542501782
 30
0.0
 11
21.2217664735
 21
9.5542501782
 31
0.0
  0
LINE
  5
273
100
AcDbEntity
  8
2A245
  6
CONTINUOUS
 62
         7
100
AcDbLine
 10
21.1692664735
 20
9.4892501782
 30
0.0
 11
22.0892664735
 21
9.4892501782
 31
0.0
  0
LINE
  5
274
100
AcDbEntity
  8
2A245
  6
CONTINUOUS
 62
         7
100
AcDbLine
 10
21.1692664735
 20
9.4892501782
 30
0.0
 11
21.1692664735
 21
9.5542501782
 31
0.0
  0
LINE
  5
275
100
AcDbEntity
  8
2A245
  6
CONTINUOUS
 62
         7
100
AcDbLine
 10
22.0892664735
 20
9.4892501782
 30
0.0
 11
22.0892664735
 21
9.5242501782
 31
0.0
  0
LINE
  5
276
100
AcDbEntity
  8
2A245
  6
CONTINUOUS
 62
         7
100
AcDbLine
 10
21.2217664735
 20
9.5542501782
 30
0.0
 11
21.5067664735
 21
9.5542501782
 31
0.0
  0
LINE
  5
277
100
AcDbEntity
  8
2A245
  6
CONTINUOUS
 62
         7
100
AcDbLine
 10
21.2217664735
 20
9.5542501782
 30
0.0
 11
21.2217664735
 21
9.7152501782
 31
0.0
  0
ENDSEC
  0
SECTION
  2
OBJECTS
  0
DICTIONARY
  5
19
100
AcDbDictionary
  3
ACAD_GROUP
350
1A
  3
ACAD_MLINESTYLE
350
1B
  0
DICTIONARY
  5
1A
102
{ACAD_REACTORS
330
19
102
}
100
AcDbDictionary
  0
DICTIONARY
  5
1B
102
{ACAD_REACTORS
330
19
102
}
100
AcDbDictionary
  3
STANDARD
350
1C
  0
MLINESTYLE
  5
1C
102
{ACAD_REACTORS
330
1B
102
}
100
AcDbMlineStyle
  2
STANDARD
 70
         0
  3

 62
         0
 51
90.0
 52
90.0
 71
         2
 49
0.5
 62
       256
  6
BYLAYER
 49
-0.5
 62
       256
  6
BYLAYER
  0
ENDSEC
  0
EOF
