  0
SECTION
  2
HEADER
  9
$ACADVER
  1
AC1012
  9
$DWGCODEPAGE
  3
ansi_1252
  9
$INSBASE
 10
0.0
 20
0.0
 30
0.0
  9
$EXTMIN
 10
0.0
 20
0.0
 30
0.0
  9
$EXTMAX
 10
34.0
 20
22.0
 30
0.0
  9
$LIMMIN
 10
0.0
 20
0.0
  9
$LIMMAX
 10
12.0
 20
9.0
  9
$ORTHOMODE
 70
         0
  9
$REGENMODE
 70
         1
  9
$FILLMODE
 70
         1
  9
$QTEXTMODE
 70
         0
  9
$MIRRTEXT
 70
         1
  9
$DRAGMODE
 70
         2
  9
$LTSCALE
 40
1.0
  9
$OSMODE
 70
         0
  9
$ATTMODE
 70
         1
  9
$TEXTSIZE
 40
0.2
  9
$TRACEWID
 40
0.05
  9
$TEXTSTYLE
  7
STANDARD
  9
$CLAYER
  8
0
  9
$CELTYPE
  6
CONTINUOUS
  9
$CECOLOR
 62
       256
  9
$CELTSCALE
 40
1.0
  9
$DELOBJ
 70
         1
  9
$DISPSILH
 70
         0
  9
$DIMSCALE
 40
1.0
  9
$DIMASZ
 40
0.18
  9
$DIMEXO
 40
0.0625
  9
$DIMDLI
 40
0.38
  9
$DIMRND
 40
0.0
  9
$DIMDLE
 40
0.0
  9
$DIMEXE
 40
0.18
  9
$DIMTP
 40
0.0
  9
$DIMTM
 40
0.0
  9
$DIMTXT
 40
0.18
  9
$DIMCEN
 40
0.09
  9
$DIMTSZ
 40
0.0
  9
$DIMTOL
 70
         0
  9
$DIMLIM
 70
         0
  9
$DIMTIH
 70
         1
  9
$DIMTOH
 70
         1
  9
$DIMSE1
 70
         0
  9
$DIMSE2
 70
         0
  9
$DIMTAD
 70
         0
  9
$DIMZIN
 70
         0
  9
$DIMBLK
  1

  9
$DIMASO
 70
         1
  9
$DIMSHO
 70
         1
  9
$DIMPOST
  1

  9
$DIMAPOST
  1

  9
$DIMALT
 70
         0
  9
$DIMALTD
 70
         2
  9
$DIMALTF
 40
25.4
  9
$DIMLFAC
 40
1.0
  9
$DIMTOFL
 70
         0
  9
$DIMTVP
 40
0.0
  9
$DIMTIX
 70
         0
  9
$DIMSOXD
 70
         0
  9
$DIMSAH
 70
         0
  9
$DIMBLK1
  1

  9
$DIMBLK2
  1

  9
$DIMSTYLE
  2
STANDARD
  9
$DIMCLRD
 70
         0
  9
$DIMCLRE
 70
         0
  9
$DIMCLRT
 70
         0
  9
$DIMTFAC
 40
1.0
  9
$DIMGAP
 40
0.09
  9
$DIMJUST
 70
         0
  9
$DIMSD1
 70
         0
  9
$DIMSD2
 70
         0
  9
$DIMTOLJ
 70
         1
  9
$DIMTZIN
 70
         0
  9
$DIMALTZ
 70
         0
  9
$DIMALTTZ
 70
         0
  9
$DIMFIT
 70
         3
  9
$DIMUPT
 70
         0
  9
$DIMUNIT
 70
         2
  9
$DIMDEC
 70
         4
  9
$DIMTDEC
 70
         4
  9
$DIMALTU
 70
         2
  9
$DIMALTTD
 70
         2
  9
$DIMTXSTY
  7
STANDARD
  9
$DIMAUNIT
 70
         0
  9
$LUNITS
 70
         2
  9
$LUPREC
 70
         4
  9
$SKETCHINC
 40
0.1
  9
$FILLETRAD
 40
0.0
  9
$AUNITS
 70
         0
  9
$AUPREC
 70
         0
  9
$MENU
  1
acad
  9
$ELEVATION
 40
0.0
  9
$PELEVATION
 40
0.0
  9
$THICKNESS
 40
0.0
  9
$LIMCHECK
 70
         0
  9
$BLIPMODE
 70
         1
  9
$CHAMFERA
 40
0.0
  9
$CHAMFERB
 40
0.0
  9
$CHAMFERC
 40
0.0
  9
$CHAMFERD
 40
0.0
  9
$SKPOLY
 70
         0
  9
$TDCREATE
 40
0.000000000
  9
$TDUPDATE
 40
0.000000000
  9
$TDINDWG
 40
0.0000000000
  9
$TDUSRTIMER
 40
0.0000000000
  9
$USRTIMER
 70
         1
  9
$ANGBASE
 50
0.0
  9
$ANGDIR
 70
         0
  9
$PDMODE
 70
         0
  9
$PDSIZE
 40
0.0
  9
$PLINEWID
 40
0.0
  9
$COORDS
 70
         0
  9
$SPLFRAME
 70
         0
  9
$SPLINETYPE
 70
         6
  9
$SPLINESEGS
 70
         8
  9
$ATTDIA
 70
         0
  9
$ATTREQ
 70
         1
  9
$HANDLING
 70
         1
  9
$HANDSEED
  5
F8
  9
$SURFTAB1
 70
         6
  9
$SURFTAB2
 70
         6
  9
$SURFTYPE
 70
         6
  9
$SURFU
 70
         6
  9
$SURFV
 70
         6
  9
$UCSNAME
  2

  9
$UCSORG
 10
0.0
 20
0.0
 30
0.0
  9
$UCSXDIR
 10
1.0
 20
0.0
 30
0.0
  9
$UCSYDIR
 10
0.0
 20
1.0
 30
0.0
  9
$PUCSNAME
  2

  9
$PUCSORG
 10
0.0
 20
0.0
 30
0.0
  9
$PUCSXDIR
 10
1.0
 20
0.0
 30
0.0
  9
$PUCSYDIR
 10
0.0
 20
1.0
 30
0.0
  9
$USERI1
 70
         0
  9
$USERI2
 70
         0
  9
$USERI3
 70
         0
  9
$USERI4
 70
         0
  9
$USERI5
 70
         0
  9
$USERR1
 40
0.0
  9
$USERR2
 40
0.0
  9
$USERR3
 40
0.0
  9
$USERR4
 40
0.0
  9
$USERR5
 40
0.0
  9
$WORLDVIEW
 70
         1
  9
$SHADEDGE
 70
         3
  9
$SHADEDIF
 70
        70
  9
$TILEMODE
 70
         1
  9
$MAXACTVP
 70
        16
  9
$PINSBASE
 10
0.0
 20
0.0
 30
0.0
  9
$PLIMCHECK
 70
         0
  9
$PEXTMIN
 10
1.0000000000E+20
 20
1.0000000000E+20
 30
1.0000000000E+20
  9
$PEXTMAX
 10
-1.0000000000E+20
 20
-1.0000000000E+20
 30
-1.0000000000E+20
  9
$PLIMMIN
 10
0.0
 20
0.0
  9
$PLIMMAX
 10
12.0
 20
9.0
  9
$UNITMODE
 70
         0
  9
$VISRETAIN
 70
         0
  9
$PLINEGEN
 70
         1
  9
$PSLTSCALE
 70
         0
  9
$TREEDEPTH
 70
      3020
  9
$PICKSTYLE
 70
         1
  9
$CMLSTYLE
  2
STANDARD
  9
$CMLJUST
 70
         0
  9
$CMLSCALE
 40
1.0
  9
$SAVEIMAGES
 70
         0
  0
ENDSEC
  0
SECTION
  2
CLASSES
  0
CLASS
  1
LWPOLYLINE
  2
AcDbPolyline
  3
"AutoCAD"
 90
        0
280
         0
281
         1
  0
CLASS
  1
IMAGE
  2
AcDbRasterImage
  3
ISM
 90
      127
280
         0
281
         1
  0
CLASS
  1
OLE2FRAME
  2
AcDbOle2Frame
  3
""
 90
        0
280
         0
281
         1
  0
CLASS
  1
HATCH
  2
AcDbHatch
  3
"ACAD_SEDONA"
 90
        0
280
         0
281
         1
  0
CLASS
  1
DICTIONARYVAR
  2
AcDbDictionaryVar
  3
"AutoCAD"
 90
        0
280
         0
281
         0
  0
CLASS
  1
RASTERVARIABLES
  2
AcDbRasterVariables
  3
ISM
 90
        0
280
         0
281
         0
  0
CLASS
  1
IMAGEDEF
  2
AcDbRasterImageDef
  3
ISM
 90
        0
280
         0
281
         0
  0
CLASS
  1
IMAGEDEF_REACTOR
  2
AcDbRasterImageDefReactor
  3
ISM
 90
        1
280
         0
281
         0
  0
CLASS
  1
IDBUFFER
  2
AcDbIdBuffer
  3
"Acad"
 90
        0
280
         0
281
         0
  0
CLASS
  1
SPATIAL_FILTER
  2
AcDbSpatialFilter
  3
"Acad"
 90
        0
280
         0
281
         0
  0
CLASS
  1
XRECORD
  2
AcDbXrecord
  3
"<Built In>"
 90
        0
280
         0
281
         0
  0
CLASS
  1
SORTENTSTABLE
  2
AcDbSortentsTable
  3
"AutoCAD"
 90
        0
280
         0
281
         0
  0
CLASS
  1
LAYER_INDEX
  2
AcDbLayerIndex
  3
"Acad"
 90
        0
280
         0
281
         0
  0
CLASS
  1
SPATIAL_INDEX
  2
AcDbSpatialIndex
  3
"Acad"
 90
        0
280
         0
281
         0
  0
CLASS
  1
OBJECT_PTR
  2
CAseDLPNTableRecord
  3
"ASE-LPNTableRecord"
 90
        1
280
         0
281
         0
  0
CLASS
  1
LAYOUT
  2
AcDbLayout
  3
"AutoCAD 2000"
 90
        1
280
         0
281
         0
  0
CLASS
  1
PLOTSETTINGS
  2
AcDbPlotSettings
  3
"AutoCAD 2000"
 90
        1
280
         0
281
         0
  0
CLASS
  1
ACDBDICTIONARYWDFLT
  2
AcDbDictionaryWithDefault
  3
"AutoCAD 2000"
 90
        1
280
         0
281
         0
  0
CLASS
  1
ACDBPLACEHOLDER
  2
AcDbPlaceHolder
  3
"AutoCAD 2000"
 90
        1
280
         0
281
         0
  0
CLASS
  1
VBA_PROJECT
  2
AcDbVbaProject
  3
"acadvba"
 90
        1
280
         0
281
         0
  0
CLASS
  1
WIPEOUT
  2
AcDbWipeout
  3
WipeOut|AutoCAD Express Tool|expresstools@autodesk.com
 90
      127
280
         0
281
         1
  0
CLASS
  1
WIPEOUTVARIABLES
  2
AcDbWipeoutVariables
  3
WipeOut|AutoCAD Express Tool|expresstools@autodesk.com
 90
        0
280
         0
281
         0
  0
CLASS
  1
RTEXT
  2
RText
  3
RText|AutoCAD Express Tool|expresstools@autodesk.com
 90
        0
280
         0
281
         1
  0
CLASS
  1
ARCALIGNEDTEXT
  2
AcDbArcAlignedText
  3
ATEXT|AutoCAD Express Tool|expresstools@autodesk.com
 90
        0
280
         0
281
         1
  0
ENDSEC
  0
SECTION
  2
TABLES
  0
TABLE
  2
VPORT
  5
7
100
AcDbSymbolTable
 70
         1
  0
VPORT
  5
15
100
AcDbSymbolTableRecord
100
AcDbViewportTableRecord
  2
*ACTIVE
 70
         0
 10
0.0
 20
0.0
 11
1.0
 21
1.0
 12
17.0
 22
11.0
 13
0.0
 23
0.0
 14
1.0
 24
1.0
 15
0.0
 25
0.0
 16
0.0
 26
0.0
 36
1.0
 17
0.0
 27
0.0
 37
0.0
 40
22.0
 41
1.604229
 42
50.0
 43
0.0
 44
0.0
 50
0.0
 51
0.0
 71
         0
 72
       100
 73
         1
 74
         1
 75
         0
 76
         0
 77
         0
 78
         0
  0
ENDTAB
  0
TABLE
  2
LTYPE
  5
4
100
AcDbSymbolTable
 70
         7
  0
LTYPE
  5
11
100
AcDbSymbolTableRecord
100
AcDbLinetypeTableRecord
  2
BYBLOCK
 70
        64
  3

 72
        65
 73
         0
 40
0.0
  0
LTYPE
  5
12
100
AcDbSymbolTableRecord
100
AcDbLinetypeTableRecord
  2
BYLAYER
 70
        64
  3

 72
        65
 73
         0
 40
0.0
  0
LTYPE
  5
13
100
AcDbSymbolTableRecord
100
AcDbLinetypeTableRecord
  2
CONTINUOUS
 70
         0
  3
Solid line
 72
        65
 73
         0
 40
0.0
  0
LTYPE
  5
21
100
AcDbSymbolTableRecord
100
AcDbLinetypeTableRecord
  2
HIDDEN2
 70
        64
  3
_ _ _ _ _ _ _ _ _ _ _ _ _ _ _ _ _ _ _ _ _ _ _ _
 72
        65
 73
         2
 40
0.1875
 49
0.125
 74
         0
 49
-0.0625
 74
         0
  0
LTYPE
  5
22
100
AcDbSymbolTableRecord
100
AcDbLinetypeTableRecord
  2
CENTER2
 70
        64
  3
___ _ ___ _ ___ _ ___ _ ___ _ ___ _ ___ _ ___ _
 72
        65
 73
         4
 40
1.125
 49
0.75
 74
         0
 49
-0.125
 74
         0
 49
0.125
 74
         0
 49
-0.125
 74
         0
  0
LTYPE
  5
23
100
AcDbSymbolTableRecord
100
AcDbLinetypeTableRecord
  2
PHANTOM2
 70
        64
  3
___ _ _ ___ _ _ ___ _ _ ___ _ _ ___ _ _ ___ _ _
 72
        65
 73
         6
 40
1.25
 49
0.625
 74
         0
 49
-0.125
 74
         0
 49
0.125
 74
         0
 49
-0.125
 74
         0
 49
0.125
 74
         0
 49
-0.125
 74
         0
  0
LTYPE
  5
24
100
AcDbSymbolTableRecord
100
AcDbLinetypeTableRecord
  2
DOT2
 70
        64
  3
...............................................
 72
        65
 73
         2
 40
0.125
 49
0.0
 74
         0
 49
-0.125
 74
         0
  0
ENDTAB
  0
TABLE
  2
LAYER
  5
2
100
AcDbSymbolTable
 70
         3
  0
LAYER
  5
14
100
AcDbSymbolTableRecord
100
AcDbLayerTableRecord
  2
0
 70
         0
 62
         7
  6
CONTINUOUS
  0
LAYER
  5
26
100
AcDbSymbolTableRecord
100
AcDbLayerTableRecord
  2
DEFAULT
 70
         0
 62
         7
  6
CONTINUOUS
  0
LAYER
  5
28
100
AcDbSymbolTableRecord
100
AcDbLayerTableRecord
  2
83539X1
 70
         0
 62
         7
  6
CONTINUOUS
  0
ENDTAB
  0
TABLE
  2
STYLE
  5
3
100
AcDbSymbolTable
 70
         2
  0
STYLE
  5
17
100
AcDbSymbolTableRecord
100
AcDbTextStyleTableRecord
  2
STANDARD
 70
         0
 40
0.0
 41
1.0
 50
0.0
 71
         0
 42
0.2
  3
txt
  4

  0
STYLE
  5
29
100
AcDbSymbolTableRecord
100
AcDbTextStyleTableRecord
  2
ARIAL_TTF
 70
         0
 40
0.0
 41
1.0
 50
0.0
 71
         0
 42
0.2
  3
arial.ttf
  4

1001
ACAD
1000
Arial
1071
        2
  0
ENDTAB
  0
TABLE
  2
VIEW
  5
5
100
AcDbSymbolTable
 70
         0
  0
ENDTAB
  0
TABLE
  2
UCS
  5
6
100
AcDbSymbolTable
 70
         0
  0
ENDTAB
  0
TABLE
  2
APPID
  5
8
100
AcDbSymbolTable
 70
         1
  0
APPID
  5
16
100
AcDbSymbolTableRecord
100
AcDbRegAppTableRecord
  2
ACAD
 70
         0
  0
ENDTAB
  0
TABLE
  2
DIMSTYLE
  5
9
100
AcDbSymbolTable
 70
         1
  0
DIMSTYLE
105
18
100
AcDbSymbolTableRecord
100
AcDbDimStyleTableRecord
  2
STANDARD
 70
         0
  3

  4

  5

  6

  7

 40
1.0
 41
0.18
 42
0.0625
 43
0.38
 44
0.18
 45
0.0
 46
0.0
 47
0.0
 48
0.0
 71
         0
 72
         0
 73
         1
 74
         1
 75
         0
 76
         0
 77
         0
 78
         0
140
0.18
141
0.09
142
0.0
143
25.4
144
1.0
145
0.0
146
1.0
147
0.09
170
         0
171
         2
172
         0
173
         0
174
         0
175
         0
176
         0
177
         0
178
         0
270
         2
271
         4
272
         4
273
         2
274
         2
275
         0
280
         0
281
         0
282
         0
283
         1
284
         0
285
         0
286
         0
287
         0
288
         0
340
17
  0
ENDTAB
  0
TABLE
  2
BLOCK_RECORD
  5
1
100
AcDbSymbolTable
 70
         0
  0
BLOCK_RECORD
  5
A
100
AcDbSymbolTableRecord
100
AcDbBlockTableRecord
  2
*MODEL_SPACE
  0
BLOCK_RECORD
  5
B
100
AcDbSymbolTableRecord
100
AcDbBlockTableRecord
  2
*PAPER_SPACE
  0
ENDTAB
  0
ENDSEC
  0
SECTION
  2
BLOCKS
  0
BLOCK
  5
D
100
AcDbEntity
  8
0
100
AcDbBlockBegin
  2
*MODEL_SPACE
 70
         0
 10
0.0
 20
0.0
 30
0.0
  3
*MODEL_SPACE
  1

  0
ENDBLK
  5
E
100
AcDbEntity
  8
0
100
AcDbBlockEnd
  0
BLOCK
  5
F
100
AcDbEntity
 67
         1
  8
0
100
AcDbBlockBegin
  2
*PAPER_SPACE
 70
         0
 10
0.0
 20
0.0
 30
0.0
  3
*PAPER_SPACE
  1

  0
ENDBLK
  5
10
100
AcDbEntity
 67
         1
  8
0
100
AcDbBlockEnd
  0
ENDSEC
  0
SECTION
  2
ENTITIES
  0
ARC
  5
2A
100
AcDbEntity
  8
83539X1
  6
CONTINUOUS
 62
         7
100
AcDbCircle
 10
16.9725362444
 20
15.8356180538
 30
0.0
 40
0.02
100
AcDbArc
 50
0.0
 51
90.0
  0
LINE
  5
2B
100
AcDbEntity
  8
83539X1
  6
CONTINUOUS
 62
         7
100
AcDbLine
 10
16.3619672833
 20
13.5416180538
 30
0.0
 11
16.7845362444
 21
13.5416180538
 31
0.0
  0
CIRCLE
  5
2C
100
AcDbEntity
  8
83539X1
  6
CONTINUOUS
 62
         7
100
AcDbCircle
 10
16.8985362444
 20
14.6356180538
 30
0.0
 40
2.75
  0
ARC
  5
2D
100
AcDbEntity
  8
83539X1
  6
CONTINUOUS
 62
         7
100
AcDbCircle
 10
16.8985362444
 20
14.6356180538
 30
0.0
 40
1.2185
100
AcDbArc
 50
116.1263448462
 51
243.8736551538
  0
LINE
  5
2E
100
AcDbEntity
  8
83539X1
  6
CONTINUOUS
 62
         7
100
AcDbLine
 10
17.0125362444
 20
13.5416180538
 30
0.0
 11
17.4351052055
 21
13.5416180538
 31
0.0
  0
LINE
  5
2F
100
AcDbEntity
  8
83539X1
  6
CONTINUOUS
 62
         7
100
AcDbLine
 10
17.4351052055
 20
15.7296180538
 30
0.0
 11
17.0125362444
 21
15.7296180538
 31
0.0
  0
LINE
  5
30
100
AcDbEntity
  8
83539X1
  6
CONTINUOUS
 62
         7
100
AcDbLine
 10
16.9725362444
 20
13.4156180538
 30
0.0
 11
16.8245362444
 21
13.4156180538
 31
0.0
  0
LINE
  5
31
100
AcDbEntity
  8
83539X1
  6
CONTINUOUS
 62
         7
100
AcDbLine
 10
16.7845362444
 20
15.7296180538
 30
0.0
 11
16.3619672833
 21
15.7296180538
 31
0.0
  0
LINE
  5
32
100
AcDbEntity
  8
83539X1
  6
CONTINUOUS
 62
         7
100
AcDbLine
 10
16.8245362444
 20
15.8556180538
 30
0.0
 11
16.9725362444
 21
15.8556180538
 31
0.0
  0
ARC
  5
33
100
AcDbEntity
  8
83539X1
  6
CONTINUOUS
 62
         7
100
AcDbCircle
 10
16.8985362444
 20
14.6356180538
 30
0.0
 40
1.2185
100
AcDbArc
 50
296.1263448462
 51
63.8736551538
  0
ARC
  5
34
100
AcDbEntity
  8
83539X1
  6
CONTINUOUS
 62
         7
100
AcDbCircle
 10
16.8245362444
 20
15.8356180538
 30
0.0
 40
0.02
100
AcDbArc
 50
90.0
 51
180.0
  0
ARC
  5
35
100
AcDbEntity
  8
83539X1
  6
CONTINUOUS
 62
         7
100
AcDbCircle
 10
16.7845362444
 20
13.5216180538
 30
0.0
 40
0.02
100
AcDbArc
 50
0.0
 51
90.0
  0
ARC
  5
36
100
AcDbEntity
  8
83539X1
  6
CONTINUOUS
 62
         7
100
AcDbCircle
 10
16.7845362444
 20
15.7496180538
 30
0.0
 40
0.02
100
AcDbArc
 50
270.0
 51
360.0
  0
ARC
  5
37
100
AcDbEntity
  8
83539X1
  6
CONTINUOUS
 62
         7
100
AcDbCircle
 10
17.0125362444
 20
15.7496180538
 30
0.0
 40
0.02
100
AcDbArc
 50
180.0
 51
270.0
  0
ARC
  5
38
100
AcDbEntity
  8
83539X1
  6
CONTINUOUS
 62
         7
100
AcDbCircle
 10
17.0125362444
 20
13.5216180538
 30
0.0
 40
0.02
100
AcDbArc
 50
90.0
 51
180.0
  0
ARC
  5
39
100
AcDbEntity
  8
83539X1
  6
CONTINUOUS
 62
         7
100
AcDbCircle
 10
16.9725362444
 20
13.4356180538
 30
0.0
 40
0.02
100
AcDbArc
 50
270.0
 51
360.0
  0
ARC
  5
3A
100
AcDbEntity
  8
83539X1
  6
CONTINUOUS
 62
         7
100
AcDbCircle
 10
16.8245362444
 20
13.4356180538
 30
0.0
 40
0.02
100
AcDbArc
 50
180.0
 51
270.0
  0
LINE
  5
3B
100
AcDbEntity
  8
83539X1
  6
CONTINUOUS
 62
         7
100
AcDbLine
 10
16.9925362444
 20
15.8356180538
 30
0.0
 11
16.9925362444
 21
15.7496180538
 31
0.0
  0
LINE
  5
3C
100
AcDbEntity
  8
83539X1
  6
CONTINUOUS
 62
         7
100
AcDbLine
 10
16.9925362444
 20
13.5216180538
 30
0.0
 11
16.9925362444
 21
13.4356180538
 31
0.0
  0
CIRCLE
  5
3D
100
AcDbEntity
  8
83539X1
  6
CONTINUOUS
 62
         7
100
AcDbCircle
 10
16.8985362444
 20
14.6356180538
 30
0.0
 40
1.2875
  0
LINE
  5
3E
100
AcDbEntity
  8
83539X1
  6
CONTINUOUS
 62
         7
100
AcDbLine
 10
16.8045362444
 20
13.4356180538
 30
0.0
 11
16.8045362444
 21
13.5216180538
 31
0.0
  0
LINE
  5
3F
100
AcDbEntity
  8
83539X1
  6
CONTINUOUS
 62
         7
100
AcDbLine
 10
16.8045362444
 20
15.7496180538
 30
0.0
 11
16.8045362444
 21
15.8356180538
 31
0.0
  0
CIRCLE
  5
40
100
AcDbEntity
  8
83539X1
  6
CONTINUOUS
 62
         7
100
AcDbCircle
 10
16.4536263058
 20
12.9751915584
 30
0.0
 40
0.166
  0
CIRCLE
  5
41
100
AcDbEntity
  8
83539X1
  6
CONTINUOUS
 62
         7
100
AcDbCircle
 10
15.6830196875
 20
15.8511346106
 30
0.0
 40
0.1065
  0
CIRCLE
  5
42
100
AcDbEntity
  8
83539X1
  6
CONTINUOUS
 62
         7
100
AcDbCircle
 10
16.4536263058
 20
12.9751915584
 30
0.0
 40
0.1065
  0
CIRCLE
  5
43
100
AcDbEntity
  8
83539X1
  6
CONTINUOUS
 62
         7
100
AcDbCircle
 10
15.6830196875
 20
15.8511346106
 30
0.0
 40
0.166
  0
CIRCLE
  5
44
100
AcDbEntity
  8
83539X1
  6
CONTINUOUS
 62
         7
100
AcDbCircle
 10
18.5589627398
 20
15.0805279923
 30
0.0
 40
0.166
  0
CIRCLE
  5
45
100
AcDbEntity
  8
83539X1
  6
CONTINUOUS
 62
         7
100
AcDbCircle
 10
18.5589627398
 20
15.0805279923
 30
0.0
 40
0.1065
  0
LINE
  5
46
100
AcDbEntity
  8
0
  6
CONTINUOUS
 62
       136
100
AcDbLine
 10
18.3325236941
 20
16.9821431429
 30
0.0
 11
18.8472881149
 21
17.8244849838
 31
0.0
  0
POLYLINE
  5
47
100
AcDbEntity
  8
0
  6
CONTINUOUS
 62
       136
100
AcDb2dPolyline
 66
         1
 10
0.0
 20
0.0
 30
0.0
  0
VERTEX
  5
48
100
AcDbEntity
  8
0
  6
CONTINUOUS
 62
       136
100
AcDbVertex
100
AcDb2dVertex
 10
18.3799282361
 20
17.0996669141
 30
0.0
  0
VERTEX
  5
49
100
AcDbEntity
  8
0
  6
CONTINUOUS
 62
       136
100
AcDbVertex
100
AcDb2dVertex
 10
18.3325236941
 20
16.9821431429
 30
0.0
  0
VERTEX
  5
4A
100
AcDbEntity
  8
0
  6
CONTINUOUS
 62
       136
100
AcDbVertex
100
AcDb2dVertex
 10
18.4154816461
 20
17.0779398318
 30
0.0
  0
VERTEX
  5
4B
100
AcDbEntity
  8
0
  6
CONTINUOUS
 62
       136
100
AcDbVertex
100
AcDb2dVertex
 10
18.3799282361
 20
17.0996669141
 30
0.0
  0
SEQEND
  5
4C
100
AcDbEntity
  8
0
  6
CONTINUOUS
 62
       136
  0
LINE
  5
4D
100
AcDbEntity
  8
0
  6
CONTINUOUS
 62
       136
100
AcDbLine
 10
18.8472880994
 20
17.8244849584
 30
0.0
 11
19.222288104
 21
17.8244849584
 31
0.0
  0
TEXT
  5
4E
100
AcDbEntity
  8
0
  6
CONTINUOUS
 62
       136
100
AcDbText
 10
19.266038104
 20
17.7619849584
 30
0.0
 40
0.125
  1
Ø
  7
ARIAL_TTF
 11
19.266038104
 21
17.8869849584
 31
0.0
100
AcDbText
 73
         3
  0
TEXT
  5
4F
100
AcDbEntity
  8
0
  6
CONTINUOUS
 62
       136
100
AcDbText
 10
19.4769076692
 20
17.7619849584
 30
0.0
 40
0.125
  1
5 1/2
  7
ARIAL_TTF
 11
19.4769076692
 21
17.8869849584
 31
0.0
100
AcDbText
 73
         3
  0
LINE
  5
50
100
AcDbEntity
  8
0
  6
CONTINUOUS
 62
       136
100
AcDbLine
 10
17.4360677134
 20
15.8055394912
 30
0.0
 11
17.6514631306
 21
16.2743412836
 31
0.0
  0
POLYLINE
  5
51
100
AcDbEntity
  8
0
  6
CONTINUOUS
 62
       136
100
AcDb2dPolyline
 66
         1
 10
0.0
 20
0.0
 30
0.0
  0
VERTEX
  5
52
100
AcDbEntity
  8
0
  6
CONTINUOUS
 62
       136
100
AcDbVertex
100
AcDb2dVertex
 10
17.4693244667
 20
15.9278220155
 30
0.0
  0
VERTEX
  5
53
100
AcDbEntity
  8
0
  6
CONTINUOUS
 62
       136
100
AcDbVertex
100
AcDb2dVertex
 10
17.4360677134
 20
15.8055394912
 30
0.0
  0
VERTEX
  5
54
100
AcDbEntity
  8
0
  6
CONTINUOUS
 62
       136
100
AcDbVertex
100
AcDb2dVertex
 10
17.5071860014
 20
15.9104261753
 30
0.0
  0
VERTEX
  5
55
100
AcDbEntity
  8
0
  6
CONTINUOUS
 62
       136
100
AcDbVertex
100
AcDb2dVertex
 10
17.4693244667
 20
15.9278220155
 30
0.0
  0
SEQEND
  5
56
100
AcDbEntity
  8
0
  6
CONTINUOUS
 62
       136
  0
LINE
  5
57
100
AcDbEntity
  8
0
  6
CONTINUOUS
 62
       136
100
AcDbLine
 10
17.6514631765
 20
16.2743413836
 30
0.0
 11
18.0264631812
 21
16.2743413836
 31
0.0
  0
TEXT
  5
58
100
AcDbEntity
  8
0
  6
CONTINUOUS
 62
       136
100
AcDbText
 10
18.0702131812
 20
16.2118413836
 30
0.0
 40
0.125
  1
Ø
  7
ARIAL_TTF
 11
18.0702131812
 21
16.3368413836
 31
0.0
100
AcDbText
 73
         3
  0
TEXT
  5
59
100
AcDbEntity
  8
0
  6
CONTINUOUS
 62
       136
100
AcDbText
 10
18.2810827464
 20
16.2118413836
 30
0.0
 40
0.125
  1
2 9/16
  7
ARIAL_TTF
 11
18.2810827464
 21
16.3368413836
 31
0.0
100
AcDbText
 73
         3
  0
LINE
  5
5A
100
AcDbEntity
  8
0
  6
CONTINUOUS
 62
       136
100
AcDbLine
 10
17.6969912251
 20
15.5560591946
 30
0.0
 11
17.9614918607
 21
15.8609696437
 31
0.0
  0
POLYLINE
  5
5B
100
AcDbEntity
  8
0
  6
CONTINUOUS
 62
       136
100
AcDb2dPolyline
 66
         1
 10
0.0
 20
0.0
 30
0.0
  0
VERTEX
  5
5C
100
AcDbEntity
  8
0
  6
CONTINUOUS
 62
       136
100
AcDbVertex
100
AcDb2dVertex
 10
17.76316358
 20
15.6641343852
 30
0.0
  0
VERTEX
  5
5D
100
AcDbEntity
  8
0
  6
CONTINUOUS
 62
       136
100
AcDbVertex
100
AcDb2dVertex
 10
17.6969912251
 20
15.5560591946
 30
0.0
  0
VERTEX
  5
5E
100
AcDbEntity
  8
0
  6
CONTINUOUS
 62
       136
100
AcDbVertex
100
AcDb2dVertex
 10
17.7946381092
 20
15.6368311787
 30
0.0
  0
VERTEX
  5
5F
100
AcDbEntity
  8
0
  6
CONTINUOUS
 62
       136
100
AcDbVertex
100
AcDb2dVertex
 10
17.76316358
 20
15.6641343852
 30
0.0
  0
SEQEND
  5
60
100
AcDbEntity
  8
0
  6
CONTINUOUS
 62
       136
  0
LINE
  5
61
100
AcDbEntity
  8
0
  6
CONTINUOUS
 62
       136
100
AcDbLine
 10
17.9614919068
 20
15.8609696969
 30
0.0
 11
18.3364919115
 21
15.8609696969
 31
0.0
  0
TEXT
  5
62
100
AcDbEntity
  8
0
  6
CONTINUOUS
 62
       136
100
AcDbText
 10
18.3802419115
 20
15.7984696969
 30
0.0
 40
0.125
  1
R
  7
ARIAL_TTF
 11
18.3802419115
 21
15.9234696969
 31
0.0
100
AcDbText
 73
         3
  0
TEXT
  5
63
100
AcDbEntity
  8
0
  6
CONTINUOUS
 62
       136
100
AcDbText
 10
18.5802419115
 20
15.7984696969
 30
0.0
 40
0.125
  1
1 3/16
  7
ARIAL_TTF
 11
18.5802419115
 21
15.9234696969
 31
0.0
100
AcDbText
 73
         3
  0
POLYLINE
  5
64
100
AcDbEntity
  8
0
  6
CONTINUOUS
 62
       136
100
AcDb2dPolyline
 66
         1
 10
0.0
 20
0.0
 30
0.0
  0
VERTEX
  5
65
100
AcDbEntity
  8
0
  6
CONTINUOUS
 62
       136
100
AcDbVertex
100
AcDb2dVertex
 10
15.4909377297
 20
15.4822759596
 30
0.0
  0
VERTEX
  5
66
100
AcDbEntity
  8
0
  6
CONTINUOUS
 62
       136
100
AcDbVertex
100
AcDb2dVertex
 10
15.4172807742
 20
15.5853956973
 30
0.0
  0
VERTEX
  5
67
100
AcDbEntity
  8
0
  6
CONTINUOUS
 62
       136
100
AcDbVertex
100
AcDb2dVertex
 10
15.5204005119
 20
15.5117387418
 30
0.0
  0
VERTEX
  5
68
100
AcDbEntity
  8
0
  6
CONTINUOUS
 62
       136
100
AcDbVertex
100
AcDb2dVertex
 10
15.4909377297
 20
15.4822759596
 30
0.0
  0
SEQEND
  5
69
100
AcDbEntity
  8
0
  6
CONTINUOUS
 62
       136
  0
POLYLINE
  5
6A
100
AcDbEntity
  8
0
  6
CONTINUOUS
 62
       136
100
AcDb2dPolyline
 66
         1
 10
0.0
 20
0.0
 30
0.0
  0
VERTEX
  5
6B
100
AcDbEntity
  8
0
  6
CONTINUOUS
 62
       136
100
AcDbVertex
100
AcDb2dVertex
 10
16.5296775934
 20
14.4435360959
 30
0.0
  0
VERTEX
  5
6C
100
AcDbEntity
  8
0
  6
CONTINUOUS
 62
       136
100
AcDbVertex
100
AcDb2dVertex
 10
16.6327973311
 20
14.3698791404
 30
0.0
  0
VERTEX
  5
6D
100
AcDbEntity
  8
0
  6
CONTINUOUS
 62
       136
100
AcDbVertex
100
AcDb2dVertex
 10
16.5591403756
 20
14.4729988781
 30
0.0
  0
VERTEX
  5
6E
100
AcDbEntity
  8
0
  6
CONTINUOUS
 62
       136
100
AcDbVertex
100
AcDb2dVertex
 10
16.5296775934
 20
14.4435360959
 30
0.0
  0
SEQEND
  5
6F
100
AcDbEntity
  8
0
  6
CONTINUOUS
 62
       136
  0
LINE
  5
70
100
AcDbEntity
  8
0
  6
CONTINUOUS
 62
       136
100
AcDbLine
 10
15.6388255142
 20
15.8069404373
 30
0.0
 11
15.3730866009
 21
15.541201524
 31
0.0
  0
LINE
  5
71
100
AcDbEntity
  8
0
  6
CONTINUOUS
 62
       136
100
AcDbLine
 10
16.8543420711
 20
14.5914238805
 30
0.0
 11
16.5886031578
 21
14.3256849672
 31
0.0
  0
LINE
  5
72
100
AcDbEntity
  8
0
  6
CONTINUOUS
 62
       136
100
AcDbLine
 10
15.4172807742
 20
15.5853956973
 30
0.0
 11
15.9187890699
 21
15.0838874016
 31
0.0
  0
LINE
  5
73
100
AcDbEntity
  8
0
  6
CONTINUOUS
 62
       136
100
AcDbLine
 10
16.1312890353
 20
14.8713874362
 30
0.0
 11
16.6327973311
 21
14.3698791404
 31
0.0
  0
TEXT
  5
74
100
AcDbEntity
  8
0
  6
CONTINUOUS
 62
       136
100
AcDbText
 10
15.8293868818
 20
14.9151374158
 30
0.0
 40
0.125
  1
1 3/4
  7
ARIAL_TTF
 11
15.8293868818
 21
15.0401374158
 31
0.0
100
AcDbText
 73
         3
  0
LINE
  5
75
100
AcDbEntity
  8
83539X1
  6
CONTINUOUS
 62
         7
100
AcDbLine
 10
18.8960362444
 20
9.4743624437
 30
0.0
 11
18.9014605438
 21
9.5363624437
 31
0.0
  0
LINE
  5
76
100
AcDbEntity
  8
83539X1
  6
CONTINUOUS
 62
         7
100
AcDbLine
 10
14.8956119449
 20
9.5363624437
 30
0.0
 11
14.9010362444
 21
9.4743624437
 31
0.0
  0
LINE
  5
77
100
AcDbEntity
  8
83539X1
  6
CONTINUOUS
 62
         7
100
AcDbLine
 10
18.3030638883
 20
9.2403624437
 30
0.0
 11
18.3235362444
 21
9.4743624437
 31
0.0
  0
ARC
  5
78
100
AcDbEntity
  8
83539X1
  6
CONTINUOUS
 62
         7
100
AcDbCircle
 10
14.2887182689
 20
9.3803624437
 30
0.0
 40
0.25
100
AcDbArc
 50
90.0
 51
124.1061655443
  0
LINE
  5
79
100
AcDbEntity
  8
83539X1
  6
CONTINUOUS
 62
         7
100
AcDbLine
 10
14.1485362444
 20
9.5873624437
 30
0.0
 11
14.1485362444
 21
9.5363624437
 31
0.0
  0
LINE
  5
7A
100
AcDbEntity
  8
83539X1
  6
CONTINUOUS
 62
         7
100
AcDbLine
 10
15.2729054317
 20
9.4643624437
 30
0.0
 11
15.2729054317
 21
9.4743624437
 31
0.0
  0
LINE
  5
7B
100
AcDbEntity
  8
83539X1
  6
CONTINUOUS
 62
         7
100
AcDbLine
 10
16.6550473423
 20
9.4743624437
 30
0.0
 11
16.6550473423
 21
9.4643624437
 31
0.0
  0
LINE
  5
7C
100
AcDbEntity
  8
83539X1
  6
CONTINUOUS
 62
         7
100
AcDbLine
 10
18.5518817042
 20
9.4743624437
 30
0.0
 11
18.5518817042
 21
9.4643624437
 31
0.0
  0
LINE
  5
7D
100
AcDbEntity
  8
83539X1
  6
CONTINUOUS
 62
         7
100
AcDbLine
 10
17.2361804764
 20
9.4643624437
 30
0.0
 11
17.2361804764
 21
9.4743624437
 31
0.0
  0
LINE
  5
7E
100
AcDbEntity
  8
83539X1
  6
CONTINUOUS
 62
         7
100
AcDbLine
 10
15.4735362444
 20
9.4743624437
 30
0.0
 11
15.4940086004
 21
9.2403624437
 31
0.0
  0
ARC
  5
7F
100
AcDbEntity
  8
83539X1
  6
CONTINUOUS
 62
         7
100
AcDbCircle
 10
19.5083542198
 20
9.3803624437
 30
0.0
 40
0.25
100
AcDbArc
 50
55.8938344557
 51
90.0
  0
LINE
  5
80
100
AcDbEntity
  8
83539X1
  6
CONTINUOUS
 62
         7
100
AcDbLine
 10
19.6485362444
 20
9.5363624437
 30
0.0
 11
19.6485362444
 21
9.5873624437
 31
0.0
  0
LINE
  5
81
100
AcDbEntity
  8
83539X1
  6
CONTINUOUS
 62
         7
100
AcDbLine
 10
15.2419054317
 20
9.4743624437
 30
0.0
 11
15.2419054317
 21
9.4643624437
 31
0.0
  0
LINE
  5
82
100
AcDbEntity
  8
83539X1
  6
CONTINUOUS
 62
         7
100
AcDbLine
 10
18.6768869197
 20
9.4643624437
 30
0.0
 11
18.6768869197
 21
9.4743624437
 31
0.0
  0
LINE
  5
83
100
AcDbEntity
  8
83539X1
  6
CONTINUOUS
 62
         7
100
AcDbLine
 10
16.6550473423
 20
9.4643624437
 30
0.0
 11
16.6596896717
 21
9.4643624437
 31
0.0
  0
LINE
  5
84
100
AcDbEntity
  8
83539X1
  6
CONTINUOUS
 62
         7
100
AcDbLine
 10
16.7242000059
 20
9.4643624437
 30
0.0
 11
16.7340072881
 21
9.4643624437
 31
0.0
  0
LINE
  5
85
100
AcDbEntity
  8
83539X1
  6
CONTINUOUS
 62
         7
100
AcDbLine
 10
16.6596896712
 20
9.4643624437
 30
0.0
 11
16.7242000059
 21
9.4643624437
 31
0.0
  0
LINE
  5
86
100
AcDbEntity
  8
83539X1
  6
CONTINUOUS
 62
         7
100
AcDbLine
 10
16.8305829731
 20
9.4643624437
 30
0.0
 11
16.8305829731
 21
9.4743624437
 31
0.0
  0
LINE
  5
87
100
AcDbEntity
  8
83539X1
  6
CONTINUOUS
 62
         7
100
AcDbLine
 10
16.8223448408
 20
9.4643624437
 30
0.0
 11
16.8223448408
 21
9.4743624437
 31
0.0
  0
LINE
  5
88
100
AcDbEntity
  8
83539X1
  6
CONTINUOUS
 62
         7
100
AcDbLine
 10
16.7678782584
 20
9.4643624437
 30
0.0
 11
16.7678782584
 21
9.4743624437
 31
0.0
  0
LINE
  5
89
100
AcDbEntity
  8
83539X1
  6
CONTINUOUS
 62
         7
100
AcDbLine
 10
16.8131139999
 20
9.4643624437
 30
0.0
 11
16.8131139999
 21
9.4743624437
 31
0.0
  0
LINE
  5
8A
100
AcDbEntity
  8
83539X1
  6
CONTINUOUS
 62
         7
100
AcDbLine
 10
17.253193753
 20
9.4643624437
 30
0.0
 11
17.253193753
 21
9.4743624437
 31
0.0
  0
LINE
  5
8B
100
AcDbEntity
  8
83539X1
  6
CONTINUOUS
 62
         7
100
AcDbLine
 10
17.3315560519
 20
9.4643624437
 30
0.0
 11
17.3315560519
 21
9.4743624437
 31
0.0
  0
LINE
  5
8C
100
AcDbEntity
  8
83539X1
  6
CONTINUOUS
 62
         7
100
AcDbLine
 10
15.2419054352
 20
9.4643624437
 30
0.0
 11
15.2729054283
 21
9.4643624437
 31
0.0
  0
LINE
  5
8D
100
AcDbEntity
  8
83539X1
  6
CONTINUOUS
 62
         7
100
AcDbLine
 10
16.7470722833
 20
9.4743624437
 30
0.0
 11
16.7470722833
 21
9.4643624437
 31
0.0
  0
LINE
  5
8E
100
AcDbEntity
  8
83539X1
  6
CONTINUOUS
 62
         7
100
AcDbLine
 10
16.8611804764
 20
9.4643624437
 30
0.0
 11
17.2361804764
 21
9.4643624437
 31
0.0
  0
LINE
  5
8F
100
AcDbEntity
  8
83539X1
  6
CONTINUOUS
 62
         7
100
AcDbLine
 10
18.5608304213
 20
9.4643624437
 30
0.0
 11
18.5518817042
 21
9.4643624437
 31
0.0
  0
LINE
  5
90
100
AcDbEntity
  8
83539X1
  6
CONTINUOUS
 62
         7
100
AcDbLine
 10
18.5985981779
 20
9.4643624437
 30
0.0
 11
18.6086742771
 21
9.4643624437
 31
0.0
  0
LINE
  5
91
100
AcDbEntity
  8
83539X1
  6
CONTINUOUS
 62
         7
100
AcDbLine
 10
18.5608304213
 20
9.4643624437
 30
0.0
 11
18.5985981779
 21
9.4643624437
 31
0.0
  0
LINE
  5
92
100
AcDbEntity
  8
83539X1
  6
CONTINUOUS
 62
         7
100
AcDbLine
 10
17.3380811409
 20
9.4643624437
 30
0.0
 11
17.3380811409
 21
9.4743624437
 31
0.0
  0
LINE
  5
93
100
AcDbEntity
  8
83539X1
  6
CONTINUOUS
 62
         7
100
AcDbLine
 10
18.6086742771
 20
9.4643624437
 30
0.0
 11
18.6206528577
 21
9.4643624437
 31
0.0
  0
LINE
  5
94
100
AcDbEntity
  8
83539X1
  6
CONTINUOUS
 62
         7
100
AcDbLine
 10
18.6086742771
 20
9.4643624437
 30
0.0
 11
18.6086742771
 21
9.4743624437
 31
0.0
  0
LINE
  5
95
100
AcDbEntity
  8
83539X1
  6
CONTINUOUS
 62
         7
100
AcDbLine
 10
18.6206528577
 20
9.4643624437
 30
0.0
 11
18.6206528577
 21
9.4743624437
 31
0.0
  0
LINE
  5
96
100
AcDbEntity
  8
83539X1
  6
CONTINUOUS
 62
         7
100
AcDbLine
 10
18.666312383
 20
9.4643624437
 30
0.0
 11
18.666312383
 21
9.4743624437
 31
0.0
  0
LINE
  5
97
100
AcDbEntity
  8
83539X1
  6
CONTINUOUS
 62
         7
100
AcDbLine
 10
16.8611804764
 20
9.4743624437
 30
0.0
 11
16.8611804764
 21
9.4643624437
 31
0.0
  0
LINE
  5
98
100
AcDbEntity
  8
83539X1
  6
CONTINUOUS
 62
         7
100
AcDbLine
 10
18.5608304213
 20
9.4643624437
 30
0.0
 11
18.5608304213
 21
9.4743624437
 31
0.0
  0
LINE
  5
99
100
AcDbEntity
  8
83539X1
  6
CONTINUOUS
 62
         7
100
AcDbLine
 10
18.5985981779
 20
9.4643624437
 30
0.0
 11
18.5985981779
 21
9.4743624437
 31
0.0
  0
LINE
  5
9A
100
AcDbEntity
  8
83539X1
  6
CONTINUOUS
 62
         7
100
AcDbLine
 10
18.6206528577
 20
9.4643624437
 30
0.0
 11
18.666312383
 21
9.4643624437
 31
0.0
  0
LINE
  5
9B
100
AcDbEntity
  8
83539X1
  6
CONTINUOUS
 62
         7
100
AcDbLine
 10
18.666312383
 20
9.4643624437
 30
0.0
 11
18.6768869197
 21
9.4643624437
 31
0.0
  0
LINE
  5
9C
100
AcDbEntity
  8
83539X1
  6
CONTINUOUS
 62
         7
100
AcDbLine
 10
14.9010362444
 20
9.4743624437
 30
0.0
 11
18.8960362444
 21
9.4743624437
 31
0.0
  0
LINE
  5
9D
100
AcDbEntity
  8
83539X1
  6
CONTINUOUS
 62
         7
100
AcDbLine
 10
15.4940086004
 20
9.2403624437
 30
0.0
 11
18.3030638883
 21
9.2403624437
 31
0.0
  0
LINE
  5
9E
100
AcDbEntity
  8
83539X1
  6
CONTINUOUS
 62
         7
100
AcDbLine
 10
14.1485362444
 20
9.5363624437
 30
0.0
 11
19.6485362444
 21
9.5363624437
 31
0.0
  0
LINE
  5
9F
100
AcDbEntity
  8
83539X1
  6
CONTINUOUS
 62
         7
100
AcDbLine
 10
14.1485362444
 20
9.5873624437
 30
0.0
 11
19.6485362444
 21
9.5873624437
 31
0.0
  0
LINE
  5
A0
100
AcDbEntity
  8
83539X1
  6
CONTINUOUS
 62
         7
100
AcDbLine
 10
14.2887182689
 20
9.6303624437
 30
0.0
 11
19.5083542198
 21
9.6303624437
 31
0.0
  0
LINE
  5
A1
100
AcDbEntity
  8
83539X1
  6
CONTINUOUS
 62
         7
100
AcDbLine
 10
15.2993043901
 20
9.4643624437
 30
0.0
 11
15.2993043901
 21
9.4743624437
 31
0.0
  0
LINE
  5
A2
100
AcDbEntity
  8
83539X1
  6
CONTINUOUS
 62
         7
100
AcDbLine
 10
15.0950332895
 20
9.4643624437
 30
0.0
 11
15.0950332895
 21
9.4743624437
 31
0.0
  0
LINE
  5
A3
100
AcDbEntity
  8
83539X1
  6
CONTINUOUS
 62
         7
100
AcDbLine
 10
15.2788050067
 20
9.4643624437
 30
0.0
 11
15.2993043901
 21
9.4643624437
 31
0.0
  0
LINE
  5
A4
100
AcDbEntity
  8
83539X1
  6
CONTINUOUS
 62
         7
100
AcDbLine
 10
15.1138758317
 20
9.4643624437
 30
0.0
 11
15.2419054317
 21
9.4643624437
 31
0.0
  0
LINE
  5
A5
100
AcDbEntity
  8
83539X1
  6
CONTINUOUS
 62
         7
100
AcDbLine
 10
15.2729054317
 20
9.4643624437
 30
0.0
 11
15.2788050067
 21
9.4643624437
 31
0.0
  0
LINE
  5
A6
100
AcDbEntity
  8
83539X1
  6
CONTINUOUS
 62
         7
100
AcDbLine
 10
15.0950332895
 20
9.4643624437
 30
0.0
 11
15.1138758317
 21
9.4643624437
 31
0.0
  0
LINE
  5
A7
100
AcDbEntity
  8
83539X1
  6
CONTINUOUS
 62
         7
100
AcDbLine
 10
16.6596896717
 20
9.4643624437
 30
0.0
 11
16.6596896717
 21
9.4743624437
 31
0.0
  0
LINE
  5
A8
100
AcDbEntity
  8
83539X1
  6
CONTINUOUS
 62
         7
100
AcDbLine
 10
16.7340072881
 20
9.4643624437
 30
0.0
 11
16.7340072881
 21
9.4743624437
 31
0.0
  0
LINE
  5
A9
100
AcDbEntity
  8
83539X1
  6
CONTINUOUS
 62
         7
100
AcDbLine
 10
16.8131139999
 20
9.4643624437
 30
0.0
 11
16.8223448408
 21
9.4643624437
 31
0.0
  0
LINE
  5
AA
100
AcDbEntity
  8
83539X1
  6
CONTINUOUS
 62
         7
100
AcDbLine
 10
16.7470722995
 20
9.4643624437
 30
0.0
 11
16.7678782584
 21
9.4643624437
 31
0.0
  0
LINE
  5
AB
100
AcDbEntity
  8
83539X1
  6
CONTINUOUS
 62
         7
100
AcDbLine
 10
16.7678782584
 20
9.4643624437
 30
0.0
 11
16.8131139999
 21
9.4643624437
 31
0.0
  0
LINE
  5
AC
100
AcDbEntity
  8
83539X1
  6
CONTINUOUS
 62
         7
100
AcDbLine
 10
17.3380811404
 20
9.4643624437
 30
0.0
 11
17.3315560508
 21
9.4643624437
 31
0.0
  0
LINE
  5
AD
100
AcDbEntity
  8
83539X1
  6
CONTINUOUS
 62
         7
100
AcDbLine
 10
16.8223448408
 20
9.4643624437
 30
0.0
 11
16.8279893507
 21
9.4643624437
 31
0.0
  0
LINE
  5
AE
100
AcDbEntity
  8
83539X1
  6
CONTINUOUS
 62
         7
100
AcDbLine
 10
17.253193753
 20
9.4643624437
 30
0.0
 11
17.27359878
 21
9.4643624437
 31
0.0
  0
LINE
  5
AF
100
AcDbEntity
  8
83539X1
  6
CONTINUOUS
 62
         7
100
AcDbLine
 10
17.27359878
 20
9.4643624437
 30
0.0
 11
17.3315560519
 21
9.4643624437
 31
0.0
  0
LINE
  5
B0
100
AcDbEntity
  8
83539X1
  6
CONTINUOUS
 62
         7
100
AcDbLine
 10
16.8279893507
 20
9.4643624437
 30
0.0
 11
16.8305829731
 21
9.4643624437
 31
0.0
  0
POLYLINE
  5
B1
100
AcDbEntity
  8
0
  6
CONTINUOUS
 62
       136
100
AcDb2dPolyline
 66
         1
 10
0.0
 20
0.0
 30
0.0
  0
VERTEX
  5
B2
100
AcDbEntity
  8
0
  6
CONTINUOUS
 62
       136
100
AcDbVertex
100
AcDb2dVertex
 10
20.1130122619
 20
9.5053624452
 30
0.0
  0
VERTEX
  5
B3
100
AcDbEntity
  8
0
  6
CONTINUOUS
 62
       136
100
AcDbVertex
100
AcDb2dVertex
 10
20.0921789288
 20
9.6303624437
 30
0.0
  0
VERTEX
  5
B4
100
AcDbEntity
  8
0
  6
CONTINUOUS
 62
       136
100
AcDbVertex
100
AcDb2dVertex
 10
20.0713455957
 20
9.5053624452
 30
0.0
  0
VERTEX
  5
B5
100
AcDbEntity
  8
0
  6
CONTINUOUS
 62
       136
100
AcDbVertex
100
AcDb2dVertex
 10
20.1130122619
 20
9.5053624452
 30
0.0
  0
SEQEND
  5
B6
100
AcDbEntity
  8
0
  6
CONTINUOUS
 62
       136
  0
POLYLINE
  5
B7
100
AcDbEntity
  8
0
  6
CONTINUOUS
 62
       136
100
AcDb2dPolyline
 66
         1
 10
0.0
 20
0.0
 30
0.0
  0
VERTEX
  5
B8
100
AcDbEntity
  8
0
  6
CONTINUOUS
 62
       136
100
AcDbVertex
100
AcDb2dVertex
 10
20.1130122619
 20
9.3653624421
 30
0.0
  0
VERTEX
  5
B9
100
AcDbEntity
  8
0
  6
CONTINUOUS
 62
       136
100
AcDbVertex
100
AcDb2dVertex
 10
20.0921789288
 20
9.2403624437
 30
0.0
  0
VERTEX
  5
BA
100
AcDbEntity
  8
0
  6
CONTINUOUS
 62
       136
100
AcDbVertex
100
AcDb2dVertex
 10
20.0713455957
 20
9.3653624421
 30
0.0
  0
VERTEX
  5
BB
100
AcDbEntity
  8
0
  6
CONTINUOUS
 62
       136
100
AcDbVertex
100
AcDb2dVertex
 10
20.1130122619
 20
9.3653624421
 30
0.0
  0
SEQEND
  5
BC
100
AcDbEntity
  8
0
  6
CONTINUOUS
 62
       136
  0
LINE
  5
BD
100
AcDbEntity
  8
0
  6
CONTINUOUS
 62
       136
100
AcDbLine
 10
19.5708542191
 20
9.6303624437
 30
0.0
 11
20.154678928
 21
9.6303624437
 31
0.0
  0
LINE
  5
BE
100
AcDbEntity
  8
0
  6
CONTINUOUS
 62
       136
100
AcDbLine
 10
18.3655638875
 20
9.2403624437
 30
0.0
 11
20.154678928
 21
9.2403624437
 31
0.0
  0
LINE
  5
BF
100
AcDbEntity
  8
0
  6
CONTINUOUS
 62
       136
100
AcDbLine
 10
20.0921789288
 20
9.6303624437
 30
0.0
 11
20.0921789288
 21
9.5416124347
 31
0.0
  0
LINE
  5
C0
100
AcDbEntity
  8
0
  6
CONTINUOUS
 62
       136
100
AcDbLine
 10
20.0921789288
 20
9.3291124342
 30
0.0
 11
20.0921789288
 21
9.2403624437
 31
0.0
  0
TEXT
  5
C1
100
AcDbEntity
  8
0
  6
CONTINUOUS
 62
       136
100
AcDbText
 10
19.9698963201
 20
9.3728624347
 30
0.0
 40
0.125
  1
3/8
  7
ARIAL_TTF
 11
19.9698963201
 21
9.4978624347
 31
0.0
100
AcDbText
 73
         3
  0
POLYLINE
  5
C2
100
AcDbEntity
  8
0
  6
CONTINUOUS
 62
       136
100
AcDb2dPolyline
 66
         1
 10
0.0
 20
0.0
 30
0.0
  0
VERTEX
  5
C3
100
AcDbEntity
  8
0
  6
CONTINUOUS
 62
       136
100
AcDbVertex
100
AcDb2dVertex
 10
19.8153679653
 20
9.7553624421
 30
0.0
  0
VERTEX
  5
C4
100
AcDbEntity
  8
0
  6
CONTINUOUS
 62
       136
100
AcDbVertex
100
AcDb2dVertex
 10
19.7945346322
 20
9.6303624437
 30
0.0
  0
VERTEX
  5
C5
100
AcDbEntity
  8
0
  6
CONTINUOUS
 62
       136
100
AcDbVertex
100
AcDb2dVertex
 10
19.7737012991
 20
9.7553624421
 30
0.0
  0
VERTEX
  5
C6
100
AcDbEntity
  8
0
  6
CONTINUOUS
 62
       136
100
AcDbVertex
100
AcDb2dVertex
 10
19.8153679653
 20
9.7553624421
 30
0.0
  0
SEQEND
  5
C7
100
AcDbEntity
  8
0
  6
CONTINUOUS
 62
       136
  0
POLYLINE
  5
C8
100
AcDbEntity
  8
0
  6
CONTINUOUS
 62
       136
100
AcDb2dPolyline
 66
         1
 10
0.0
 20
0.0
 30
0.0
  0
VERTEX
  5
C9
100
AcDbEntity
  8
0
  6
CONTINUOUS
 62
       136
100
AcDbVertex
100
AcDb2dVertex
 10
19.8153679653
 20
9.4113624452
 30
0.0
  0
VERTEX
  5
CA
100
AcDbEntity
  8
0
  6
CONTINUOUS
 62
       136
100
AcDbVertex
100
AcDb2dVertex
 10
19.7945346322
 20
9.5363624437
 30
0.0
  0
VERTEX
  5
CB
100
AcDbEntity
  8
0
  6
CONTINUOUS
 62
       136
100
AcDbVertex
100
AcDb2dVertex
 10
19.7737012991
 20
9.4113624452
 30
0.0
  0
VERTEX
  5
CC
100
AcDbEntity
  8
0
  6
CONTINUOUS
 62
       136
100
AcDbVertex
100
AcDb2dVertex
 10
19.8153679653
 20
9.4113624452
 30
0.0
  0
SEQEND
  5
CD
100
AcDbEntity
  8
0
  6
CONTINUOUS
 62
       136
  0
LINE
  5
CE
100
AcDbEntity
  8
0
  6
CONTINUOUS
 62
       136
100
AcDbLine
 10
19.5708542191
 20
9.6303624437
 30
0.0
 11
19.8570346314
 21
9.6303624437
 31
0.0
  0
LINE
  5
CF
100
AcDbEntity
  8
0
  6
CONTINUOUS
 62
       136
100
AcDbLine
 10
19.7110362436
 20
9.5363624437
 30
0.0
 11
19.8570346314
 21
9.5363624437
 31
0.0
  0
LINE
  5
D0
100
AcDbEntity
  8
0
  6
CONTINUOUS
 62
       136
100
AcDbLine
 10
19.7945346322
 20
9.8214955573
 30
0.0
 11
20.1695346368
 21
9.8214955573
 31
0.0
  0
LINE
  5
D1
100
AcDbEntity
  8
0
  6
CONTINUOUS
 62
       136
100
AcDbLine
 10
19.7945346322
 20
9.8214955573
 30
0.0
 11
19.7945346322
 21
9.6303624437
 31
0.0
  0
LINE
  5
D2
100
AcDbEntity
  8
0
  6
CONTINUOUS
 62
       136
100
AcDbLine
 10
19.7945346322
 20
9.5363624437
 30
0.0
 11
19.7945346322
 21
9.2863624467
 31
0.0
  0
TEXT
  5
D3
100
AcDbEntity
  8
0
  6
CONTINUOUS
 62
       136
100
AcDbText
 10
20.2132846368
 20
9.7589955573
 30
0.0
 40
0.125
  1
1/8
  7
ARIAL_TTF
 11
20.2132846368
 21
9.8839955573
 31
0.0
100
AcDbText
 73
         3
  0
POLYLINE
  5
D4
100
AcDbEntity
  8
0
  6
CONTINUOUS
 62
       136
100
AcDb2dPolyline
 66
         1
 10
0.0
 20
0.0
 30
0.0
  0
VERTEX
  5
D5
100
AcDbEntity
  8
0
  6
CONTINUOUS
 62
       136
100
AcDbVertex
100
AcDb2dVertex
 10
18.1780638898
 20
8.5939962568
 30
0.0
  0
VERTEX
  5
D6
100
AcDbEntity
  8
0
  6
CONTINUOUS
 62
       136
100
AcDbVertex
100
AcDb2dVertex
 10
18.3030638883
 20
8.6148295899
 30
0.0
  0
VERTEX
  5
D7
100
AcDbEntity
  8
0
  6
CONTINUOUS
 62
       136
100
AcDbVertex
100
AcDb2dVertex
 10
18.1780638898
 20
8.635662923
 30
0.0
  0
VERTEX
  5
D8
100
AcDbEntity
  8
0
  6
CONTINUOUS
 62
       136
100
AcDbVertex
100
AcDb2dVertex
 10
18.1780638898
 20
8.5939962568
 30
0.0
  0
SEQEND
  5
D9
100
AcDbEntity
  8
0
  6
CONTINUOUS
 62
       136
  0
POLYLINE
  5
DA
100
AcDbEntity
  8
0
  6
CONTINUOUS
 62
       136
100
AcDb2dPolyline
 66
         1
 10
0.0
 20
0.0
 30
0.0
  0
VERTEX
  5
DB
100
AcDbEntity
  8
0
  6
CONTINUOUS
 62
       136
100
AcDbVertex
100
AcDb2dVertex
 10
15.6190085989
 20
8.5939962568
 30
0.0
  0
VERTEX
  5
DC
100
AcDbEntity
  8
0
  6
CONTINUOUS
 62
       136
100
AcDbVertex
100
AcDb2dVertex
 10
15.4940086004
 20
8.6148295899
 30
0.0
  0
VERTEX
  5
DD
100
AcDbEntity
  8
0
  6
CONTINUOUS
 62
       136
100
AcDbVertex
100
AcDb2dVertex
 10
15.6190085989
 20
8.635662923
 30
0.0
  0
VERTEX
  5
DE
100
AcDbEntity
  8
0
  6
CONTINUOUS
 62
       136
100
AcDbVertex
100
AcDb2dVertex
 10
15.6190085989
 20
8.5939962568
 30
0.0
  0
SEQEND
  5
DF
100
AcDbEntity
  8
0
  6
CONTINUOUS
 62
       136
  0
LINE
  5
E0
100
AcDbEntity
  8
0
  6
CONTINUOUS
 62
       136
100
AcDbLine
 10
18.3030638883
 20
9.1778624444
 30
0.0
 11
18.3030638883
 21
8.5523295906
 31
0.0
  0
LINE
  5
E1
100
AcDbEntity
  8
0
  6
CONTINUOUS
 62
       136
100
AcDbLine
 10
15.4940086004
 20
9.1778624444
 30
0.0
 11
15.4940086004
 21
8.5523295906
 31
0.0
  0
LINE
  5
E2
100
AcDbEntity
  8
0
  6
CONTINUOUS
 62
       136
100
AcDbLine
 10
18.3030638883
 20
8.6148295899
 30
0.0
 11
17.2357645511
 21
8.6148295899
 31
0.0
  0
LINE
  5
E3
100
AcDbEntity
  8
0
  6
CONTINUOUS
 62
       136
100
AcDbLine
 10
16.5613080842
 20
8.6148295899
 30
0.0
 11
15.4940086004
 21
8.6148295899
 31
0.0
  0
TEXT
  5
E4
100
AcDbEntity
  8
0
  6
CONTINUOUS
 62
       136
100
AcDbText
 10
16.6050580526
 20
8.5523295899
 30
0.0
 40
0.125
  1
2 13/16
  7
ARIAL_TTF
 11
16.6050580526
 21
8.6773295899
 31
0.0
100
AcDbText
 73
         3
  0
POLYLINE
  5
E5
100
AcDbEntity
  8
0
  6
CONTINUOUS
 62
       136
100
AcDb2dPolyline
 66
         1
 10
0.0
 20
0.0
 30
0.0
  0
VERTEX
  5
E6
100
AcDbEntity
  8
0
  6
CONTINUOUS
 62
       136
100
AcDbVertex
100
AcDb2dVertex
 10
19.5235362459
 20
10.0273510255
 30
0.0
  0
VERTEX
  5
E7
100
AcDbEntity
  8
0
  6
CONTINUOUS
 62
       136
100
AcDbVertex
100
AcDb2dVertex
 10
19.6485362444
 20
10.0065176924
 30
0.0
  0
VERTEX
  5
E8
100
AcDbEntity
  8
0
  6
CONTINUOUS
 62
       136
100
AcDbVertex
100
AcDb2dVertex
 10
19.5235362459
 20
9.9856843593
 30
0.0
  0
VERTEX
  5
E9
100
AcDbEntity
  8
0
  6
CONTINUOUS
 62
       136
100
AcDbVertex
100
AcDb2dVertex
 10
19.5235362459
 20
10.0273510255
 30
0.0
  0
SEQEND
  5
EA
100
AcDbEntity
  8
0
  6
CONTINUOUS
 62
       136
  0
POLYLINE
  5
EB
100
AcDbEntity
  8
0
  6
CONTINUOUS
 62
       136
100
AcDb2dPolyline
 66
         1
 10
0.0
 20
0.0
 30
0.0
  0
VERTEX
  5
EC
100
AcDbEntity
  8
0
  6
CONTINUOUS
 62
       136
100
AcDbVertex
100
AcDb2dVertex
 10
14.2735362429
 20
10.0273510255
 30
0.0
  0
VERTEX
  5
ED
100
AcDbEntity
  8
0
  6
CONTINUOUS
 62
       136
100
AcDbVertex
100
AcDb2dVertex
 10
14.1485362444
 20
10.0065176924
 30
0.0
  0
VERTEX
  5
EE
100
AcDbEntity
  8
0
  6
CONTINUOUS
 62
       136
100
AcDbVertex
100
AcDb2dVertex
 10
14.2735362429
 20
9.9856843593
 30
0.0
  0
VERTEX
  5
EF
100
AcDbEntity
  8
0
  6
CONTINUOUS
 62
       136
100
AcDbVertex
100
AcDb2dVertex
 10
14.2735362429
 20
10.0273510255
 30
0.0
  0
SEQEND
  5
F0
100
AcDbEntity
  8
0
  6
CONTINUOUS
 62
       136
  0
LINE
  5
F1
100
AcDbEntity
  8
0
  6
CONTINUOUS
 62
       136
100
AcDbLine
 10
19.6485362444
 20
9.6498624417
 30
0.0
 11
19.6485362444
 21
10.0690176916
 31
0.0
  0
LINE
  5
F2
100
AcDbEntity
  8
0
  6
CONTINUOUS
 62
       136
100
AcDbLine
 10
14.1485362444
 20
9.6498624429
 30
0.0
 11
14.1485362444
 21
10.0690176916
 31
0.0
  0
LINE
  5
F3
100
AcDbEntity
  8
0
  6
CONTINUOUS
 62
       136
100
AcDbLine
 10
19.6485362444
 20
10.0065176924
 30
0.0
 11
17.137938447
 21
10.0065176924
 31
0.0
  0
LINE
  5
F4
100
AcDbEntity
  8
0
  6
CONTINUOUS
 62
       136
100
AcDbLine
 10
16.6591340417
 20
10.0065176924
 30
0.0
 11
14.1485362444
 21
10.0065176924
 31
0.0
  0
TEXT
  5
F5
100
AcDbEntity
  8
0
  6
CONTINUOUS
 62
       136
100
AcDbText
 10
16.7028841587
 20
9.9440176924
 30
0.0
 40
0.125
  1
5 1/2
  7
ARIAL_TTF
 11
16.7028841587
 21
10.0690176924
 31
0.0
100
AcDbText
 73
         3
  0
ENDSEC
  0
SECTION
  2
OBJECTS
  0
DICTIONARY
  5
19
100
AcDbDictionary
  3
ACAD_GROUP
350
1A
  3
ACAD_MLINESTYLE
350
1B
  0
DICTIONARY
  5
1A
102
{ACAD_REACTORS
330
19
102
}
100
AcDbDictionary
  0
DICTIONARY
  5
1B
102
{ACAD_REACTORS
330
19
102
}
100
AcDbDictionary
  3
STANDARD
350
1C
  0
MLINESTYLE
  5
1C
102
{ACAD_REACTORS
330
1B
102
}
100
AcDbMlineStyle
  2
STANDARD
 70
         0
  3

 62
         0
 51
90.0
 52
90.0
 71
         2
 49
0.5
 62
       256
  6
BYLAYER
 49
-0.5
 62
       256
  6
BYLAYER
  0
ENDSEC
  0
EOF
