  0
SECTION
  2
HEADER
  9
$ACADVER
  1
AC1012
  9
$DWGCODEPAGE
  3
ansi_1252
  9
$INSBASE
 10
0.0
 20
0.0
 30
0.0
  9
$EXTMIN
 10
-3.3698941424
 20
-2.5366160692
 30
0.0
  9
$EXTMAX
 10
3.379440084
 20
3.1438992181
 30
0.0
  9
$LIMMIN
 10
0.0
 20
0.0
  9
$LIMMAX
 10
12.0
 20
9.0
  9
$ORTHOMODE
 70
         0
  9
$REGENMODE
 70
         1
  9
$FILLMODE
 70
         1
  9
$QTEXTMODE
 70
         0
  9
$MIRRTEXT
 70
         1
  9
$DRAGMODE
 70
         2
  9
$LTSCALE
 40
1.0
  9
$OSMODE
 70
         0
  9
$ATTMODE
 70
         1
  9
$TEXTSIZE
 40
0.2
  9
$TRACEWID
 40
0.05
  9
$TEXTSTYLE
  7
STANDARD
  9
$CLAYER
  8
0
  9
$CELTYPE
  6
CONTINUOUS
  9
$CECOLOR
 62
       256
  9
$CELTSCALE
 40
1.0
  9
$DELOBJ
 70
         1
  9
$DISPSILH
 70
         0
  9
$DIMSCALE
 40
1.0
  9
$DIMASZ
 40
0.18
  9
$DIMEXO
 40
0.0625
  9
$DIMDLI
 40
0.38
  9
$DIMRND
 40
0.0
  9
$DIMDLE
 40
0.0
  9
$DIMEXE
 40
0.18
  9
$DIMTP
 40
0.0
  9
$DIMTM
 40
0.0
  9
$DIMTXT
 40
0.18
  9
$DIMCEN
 40
0.09
  9
$DIMTSZ
 40
0.0
  9
$DIMTOL
 70
         0
  9
$DIMLIM
 70
         0
  9
$DIMTIH
 70
         1
  9
$DIMTOH
 70
         1
  9
$DIMSE1
 70
         0
  9
$DIMSE2
 70
         0
  9
$DIMTAD
 70
         0
  9
$DIMZIN
 70
         0
  9
$DIMBLK
  1

  9
$DIMASO
 70
         1
  9
$DIMSHO
 70
         1
  9
$DIMPOST
  1

  9
$DIMAPOST
  1

  9
$DIMALT
 70
         0
  9
$DIMALTD
 70
         2
  9
$DIMALTF
 40
25.4
  9
$DIMLFAC
 40
1.0
  9
$DIMTOFL
 70
         0
  9
$DIMTVP
 40
0.0
  9
$DIMTIX
 70
         0
  9
$DIMSOXD
 70
         0
  9
$DIMSAH
 70
         0
  9
$DIMBLK1
  1

  9
$DIMBLK2
  1

  9
$DIMSTYLE
  2
STANDARD
  9
$DIMCLRD
 70
         0
  9
$DIMCLRE
 70
         0
  9
$DIMCLRT
 70
         0
  9
$DIMTFAC
 40
1.0
  9
$DIMGAP
 40
0.09
  9
$DIMJUST
 70
         0
  9
$DIMSD1
 70
         0
  9
$DIMSD2
 70
         0
  9
$DIMTOLJ
 70
         1
  9
$DIMTZIN
 70
         0
  9
$DIMALTZ
 70
         0
  9
$DIMALTTZ
 70
         0
  9
$DIMFIT
 70
         3
  9
$DIMUPT
 70
         0
  9
$DIMUNIT
 70
         2
  9
$DIMDEC
 70
         4
  9
$DIMTDEC
 70
         4
  9
$DIMALTU
 70
         2
  9
$DIMALTTD
 70
         2
  9
$DIMTXSTY
  7
STANDARD
  9
$DIMAUNIT
 70
         0
  9
$LUNITS
 70
         2
  9
$LUPREC
 70
         4
  9
$SKETCHINC
 40
0.1
  9
$FILLETRAD
 40
0.0
  9
$AUNITS
 70
         0
  9
$AUPREC
 70
         0
  9
$MENU
  1
acad
  9
$ELEVATION
 40
0.0
  9
$PELEVATION
 40
0.0
  9
$THICKNESS
 40
0.0
  9
$LIMCHECK
 70
         0
  9
$BLIPMODE
 70
         1
  9
$CHAMFERA
 40
0.0
  9
$CHAMFERB
 40
0.0
  9
$CHAMFERC
 40
0.0
  9
$CHAMFERD
 40
0.0
  9
$SKPOLY
 70
         0
  9
$TDCREATE
 40
0.000000000
  9
$TDUPDATE
 40
0.000000000
  9
$TDINDWG
 40
0.0000000000
  9
$TDUSRTIMER
 40
0.0000000000
  9
$USRTIMER
 70
         1
  9
$ANGBASE
 50
0.0
  9
$ANGDIR
 70
         0
  9
$PDMODE
 70
         0
  9
$PDSIZE
 40
0.0
  9
$PLINEWID
 40
0.0
  9
$COORDS
 70
         0
  9
$SPLFRAME
 70
         0
  9
$SPLINETYPE
 70
         6
  9
$SPLINESEGS
 70
         8
  9
$ATTDIA
 70
         0
  9
$ATTREQ
 70
         1
  9
$HANDLING
 70
         1
  9
$HANDSEED
  5
201
  9
$SURFTAB1
 70
         6
  9
$SURFTAB2
 70
         6
  9
$SURFTYPE
 70
         6
  9
$SURFU
 70
         6
  9
$SURFV
 70
         6
  9
$UCSNAME
  2

  9
$UCSORG
 10
0.0
 20
0.0
 30
0.0
  9
$UCSXDIR
 10
1.0
 20
0.0
 30
0.0
  9
$UCSYDIR
 10
0.0
 20
1.0
 30
0.0
  9
$PUCSNAME
  2

  9
$PUCSORG
 10
0.0
 20
0.0
 30
0.0
  9
$PUCSXDIR
 10
1.0
 20
0.0
 30
0.0
  9
$PUCSYDIR
 10
0.0
 20
1.0
 30
0.0
  9
$USERI1
 70
         0
  9
$USERI2
 70
         0
  9
$USERI3
 70
         0
  9
$USERI4
 70
         0
  9
$USERI5
 70
         0
  9
$USERR1
 40
0.0
  9
$USERR2
 40
0.0
  9
$USERR3
 40
0.0
  9
$USERR4
 40
0.0
  9
$USERR5
 40
0.0
  9
$WORLDVIEW
 70
         1
  9
$SHADEDGE
 70
         3
  9
$SHADEDIF
 70
        70
  9
$TILEMODE
 70
         1
  9
$MAXACTVP
 70
        16
  9
$PINSBASE
 10
0.0
 20
0.0
 30
0.0
  9
$PLIMCHECK
 70
         0
  9
$PEXTMIN
 10
1.0000000000E+20
 20
1.0000000000E+20
 30
1.0000000000E+20
  9
$PEXTMAX
 10
-1.0000000000E+20
 20
-1.0000000000E+20
 30
-1.0000000000E+20
  9
$PLIMMIN
 10
0.0
 20
0.0
  9
$PLIMMAX
 10
12.0
 20
9.0
  9
$UNITMODE
 70
         0
  9
$VISRETAIN
 70
         0
  9
$PLINEGEN
 70
         1
  9
$PSLTSCALE
 70
         0
  9
$TREEDEPTH
 70
      3020
  9
$PICKSTYLE
 70
         1
  9
$CMLSTYLE
  2
STANDARD
  9
$CMLJUST
 70
         0
  9
$CMLSCALE
 40
1.0
  9
$SAVEIMAGES
 70
         0
  0
ENDSEC
  0
SECTION
  2
CLASSES
  0
CLASS
  1
LWPOLYLINE
  2
AcDbPolyline
  3
"AutoCAD"
 90
        0
280
         0
281
         1
  0
CLASS
  1
IMAGE
  2
AcDbRasterImage
  3
ISM
 90
      127
280
         0
281
         1
  0
CLASS
  1
OLE2FRAME
  2
AcDbOle2Frame
  3
""
 90
        0
280
         0
281
         1
  0
CLASS
  1
HATCH
  2
AcDbHatch
  3
"ACAD_SEDONA"
 90
        0
280
         0
281
         1
  0
CLASS
  1
DICTIONARYVAR
  2
AcDbDictionaryVar
  3
"AutoCAD"
 90
        0
280
         0
281
         0
  0
CLASS
  1
RASTERVARIABLES
  2
AcDbRasterVariables
  3
ISM
 90
        0
280
         0
281
         0
  0
CLASS
  1
IMAGEDEF
  2
AcDbRasterImageDef
  3
ISM
 90
        0
280
         0
281
         0
  0
CLASS
  1
IMAGEDEF_REACTOR
  2
AcDbRasterImageDefReactor
  3
ISM
 90
        1
280
         0
281
         0
  0
CLASS
  1
IDBUFFER
  2
AcDbIdBuffer
  3
"Acad"
 90
        0
280
         0
281
         0
  0
CLASS
  1
SPATIAL_FILTER
  2
AcDbSpatialFilter
  3
"Acad"
 90
        0
280
         0
281
         0
  0
CLASS
  1
XRECORD
  2
AcDbXrecord
  3
"<Built In>"
 90
        0
280
         0
281
         0
  0
CLASS
  1
SORTENTSTABLE
  2
AcDbSortentsTable
  3
"AutoCAD"
 90
        0
280
         0
281
         0
  0
CLASS
  1
LAYER_INDEX
  2
AcDbLayerIndex
  3
"Acad"
 90
        0
280
         0
281
         0
  0
CLASS
  1
SPATIAL_INDEX
  2
AcDbSpatialIndex
  3
"Acad"
 90
        0
280
         0
281
         0
  0
CLASS
  1
OBJECT_PTR
  2
CAseDLPNTableRecord
  3
"ASE-LPNTableRecord"
 90
        1
280
         0
281
         0
  0
CLASS
  1
LAYOUT
  2
AcDbLayout
  3
"AutoCAD 2000"
 90
        1
280
         0
281
         0
  0
CLASS
  1
PLOTSETTINGS
  2
AcDbPlotSettings
  3
"AutoCAD 2000"
 90
        1
280
         0
281
         0
  0
CLASS
  1
ACDBDICTIONARYWDFLT
  2
AcDbDictionaryWithDefault
  3
"AutoCAD 2000"
 90
        1
280
         0
281
         0
  0
CLASS
  1
ACDBPLACEHOLDER
  2
AcDbPlaceHolder
  3
"AutoCAD 2000"
 90
        1
280
         0
281
         0
  0
CLASS
  1
VBA_PROJECT
  2
AcDbVbaProject
  3
"acadvba"
 90
        1
280
         0
281
         0
  0
CLASS
  1
WIPEOUT
  2
AcDbWipeout
  3
WipeOut|AutoCAD Express Tool|expresstools@autodesk.com
 90
      127
280
         0
281
         1
  0
CLASS
  1
WIPEOUTVARIABLES
  2
AcDbWipeoutVariables
  3
WipeOut|AutoCAD Express Tool|expresstools@autodesk.com
 90
        0
280
         0
281
         0
  0
CLASS
  1
RTEXT
  2
RText
  3
RText|AutoCAD Express Tool|expresstools@autodesk.com
 90
        0
280
         0
281
         1
  0
CLASS
  1
ARCALIGNEDTEXT
  2
AcDbArcAlignedText
  3
ATEXT|AutoCAD Express Tool|expresstools@autodesk.com
 90
        0
280
         0
281
         1
  0
ENDSEC
  0
SECTION
  2
TABLES
  0
TABLE
  2
VPORT
  5
7
100
AcDbSymbolTable
 70
         1
  0
VPORT
  5
15
100
AcDbSymbolTableRecord
100
AcDbViewportTableRecord
  2
*ACTIVE
 70
         0
 10
0.0
 20
0.0
 11
1.0
 21
1.0
 12
0.0047729708
 22
0.3036415744
 13
0.0
 23
0.0
 14
1.0
 24
1.0
 15
0.0
 25
0.0
 16
0.0
 26
0.0
 36
1.0
 17
0.0
 27
0.0
 37
0.0
 40
5.6805152873
 41
1.604229
 42
50.0
 43
0.0
 44
0.0
 50
0.0
 51
0.0
 71
         0
 72
       100
 73
         1
 74
         1
 75
         0
 76
         0
 77
         0
 78
         0
  0
ENDTAB
  0
TABLE
  2
LTYPE
  5
4
100
AcDbSymbolTable
 70
         7
  0
LTYPE
  5
11
100
AcDbSymbolTableRecord
100
AcDbLinetypeTableRecord
  2
BYBLOCK
 70
        64
  3

 72
        65
 73
         0
 40
0.0
  0
LTYPE
  5
12
100
AcDbSymbolTableRecord
100
AcDbLinetypeTableRecord
  2
BYLAYER
 70
        64
  3

 72
        65
 73
         0
 40
0.0
  0
LTYPE
  5
13
100
AcDbSymbolTableRecord
100
AcDbLinetypeTableRecord
  2
CONTINUOUS
 70
         0
  3
Solid line
 72
        65
 73
         0
 40
0.0
  0
LTYPE
  5
21
100
AcDbSymbolTableRecord
100
AcDbLinetypeTableRecord
  2
HIDDEN2
 70
        64
  3
_ _ _ _ _ _ _ _ _ _ _ _ _ _ _ _ _ _ _ _ _ _ _ _
 72
        65
 73
         2
 40
0.1875
 49
0.125
 74
         0
 49
-0.0625
 74
         0
  0
LTYPE
  5
22
100
AcDbSymbolTableRecord
100
AcDbLinetypeTableRecord
  2
CENTER2
 70
        64
  3
___ _ ___ _ ___ _ ___ _ ___ _ ___ _ ___ _ ___ _
 72
        65
 73
         4
 40
1.125
 49
0.75
 74
         0
 49
-0.125
 74
         0
 49
0.125
 74
         0
 49
-0.125
 74
         0
  0
LTYPE
  5
23
100
AcDbSymbolTableRecord
100
AcDbLinetypeTableRecord
  2
PHANTOM2
 70
        64
  3
___ _ _ ___ _ _ ___ _ _ ___ _ _ ___ _ _ ___ _ _
 72
        65
 73
         6
 40
1.25
 49
0.625
 74
         0
 49
-0.125
 74
         0
 49
0.125
 74
         0
 49
-0.125
 74
         0
 49
0.125
 74
         0
 49
-0.125
 74
         0
  0
LTYPE
  5
24
100
AcDbSymbolTableRecord
100
AcDbLinetypeTableRecord
  2
DOT2
 70
        64
  3
...............................................
 72
        65
 73
         2
 40
0.125
 49
0.0
 74
         0
 49
-0.125
 74
         0
  0
ENDTAB
  0
TABLE
  2
LAYER
  5
2
100
AcDbSymbolTable
 70
        18
  0
LAYER
  5
14
100
AcDbSymbolTableRecord
100
AcDbLayerTableRecord
  2
0
 70
         0
 62
         7
  6
CONTINUOUS
  0
LAYER
  5
26
100
AcDbSymbolTableRecord
100
AcDbLayerTableRecord
  2
DEFAULT
 70
         0
 62
         7
  6
CONTINUOUS
  0
LAYER
  5
33
100
AcDbSymbolTableRecord
100
AcDbLayerTableRecord
  2
E-20002-DC
 70
         0
 62
         7
  6
CONTINUOUS
  0
LAYER
  5
35
100
AcDbSymbolTableRecord
100
AcDbLayerTableRecord
  2
FIT-20001
 70
         0
 62
         7
  6
CONTINUOUS
  0
LAYER
  5
37
100
AcDbSymbolTableRecord
100
AcDbLayerTableRecord
  2
FIT-20006
 70
         0
 62
         7
  6
CONTINUOUS
  0
LAYER
  5
39
100
AcDbSymbolTableRecord
100
AcDbLayerTableRecord
  2
6-32X_5
 70
         0
 62
         7
  6
CONTINUOUS
  0
LAYER
  5
3B
100
AcDbSymbolTableRecord
100
AcDbLayerTableRecord
  2
1_001_391
 70
         0
 62
         7
  6
CONTINUOUS
  0
LAYER
  5
3D
100
AcDbSymbolTableRecord
100
AcDbLayerTableRecord
  2
429069-024
 70
         0
 62
         7
  6
CONTINUOUS
  0
LAYER
  5
3F
100
AcDbSymbolTableRecord
100
AcDbLayerTableRecord
  2
BASE
 70
         0
 62
         7
  6
CONTINUOUS
  0
LAYER
  5
41
100
AcDbSymbolTableRecord
100
AcDbLayerTableRecord
  2
STRAP
 70
         0
 62
         7
  6
CONTINUOUS
  0
LAYER
  5
43
100
AcDbSymbolTableRecord
100
AcDbLayerTableRecord
  2
CAP
 70
         0
 62
         7
  6
CONTINUOUS
  0
LAYER
  5
45
100
AcDbSymbolTableRecord
100
AcDbLayerTableRecord
  2
CORE
 70
         0
 62
         7
  6
CONTINUOUS
  0
LAYER
  5
47
100
AcDbSymbolTableRecord
100
AcDbLayerTableRecord
  2
GNDSCR
 70
         0
 62
         7
  6
CONTINUOUS
  0
LAYER
  5
49
100
AcDbSymbolTableRecord
100
AcDbLayerTableRecord
  2
LEADSCR
 70
         0
 62
         7
  6
CONTINUOUS
  0
LAYER
  5
4B
100
AcDbSymbolTableRecord
100
AcDbLayerTableRecord
  2
RETAINER
 70
         0
 62
         7
  6
CONTINUOUS
  0
LAYER
  5
4D
100
AcDbSymbolTableRecord
100
AcDbLayerTableRecord
  2
TRUSSHD_STRAPSCR
 70
         0
 62
         7
  6
CONTINUOUS
  0
LAYER
  5
4F
100
AcDbSymbolTableRecord
100
AcDbLayerTableRecord
  2
FIFP-R
 70
         0
 62
         7
  6
CONTINUOUS
  0
LAYER
  5
51
100
AcDbSymbolTableRecord
100
AcDbLayerTableRecord
  2
FIFP-T
 70
         0
 62
         7
  6
CONTINUOUS
  0
ENDTAB
  0
TABLE
  2
STYLE
  5
3
100
AcDbSymbolTable
 70
         2
  0
STYLE
  5
17
100
AcDbSymbolTableRecord
100
AcDbTextStyleTableRecord
  2
STANDARD
 70
         0
 40
0.0
 41
1.0
 50
0.0
 71
         0
 42
0.2
  3
txt
  4

  0
STYLE
  5
52
100
AcDbSymbolTableRecord
100
AcDbTextStyleTableRecord
  2
ARIAL_TTF
 70
         0
 40
0.0
 41
1.0
 50
0.0
 71
         0
 42
0.2
  3
arial.ttf
  4

1001
ACAD
1000
Arial
1071
        2
  0
ENDTAB
  0
TABLE
  2
VIEW
  5
5
100
AcDbSymbolTable
 70
         0
  0
ENDTAB
  0
TABLE
  2
UCS
  5
6
100
AcDbSymbolTable
 70
         0
  0
ENDTAB
  0
TABLE
  2
APPID
  5
8
100
AcDbSymbolTable
 70
         1
  0
APPID
  5
16
100
AcDbSymbolTableRecord
100
AcDbRegAppTableRecord
  2
ACAD
 70
         0
  0
ENDTAB
  0
TABLE
  2
DIMSTYLE
  5
9
100
AcDbSymbolTable
 70
         1
  0
DIMSTYLE
105
18
100
AcDbSymbolTableRecord
100
AcDbDimStyleTableRecord
  2
STANDARD
 70
         0
  3

  4

  5

  6

  7

 40
1.0
 41
0.18
 42
0.0625
 43
0.38
 44
0.18
 45
0.0
 46
0.0
 47
0.0
 48
0.0
 71
         0
 72
         0
 73
         1
 74
         1
 75
         0
 76
         0
 77
         0
 78
         0
140
0.18
141
0.09
142
0.0
143
25.4
144
1.0
145
0.0
146
1.0
147
0.09
170
         0
171
         2
172
         0
173
         0
174
         0
175
         0
176
         0
177
         0
178
         0
270
         2
271
         4
272
         4
273
         2
274
         2
275
         0
280
         0
281
         0
282
         0
283
         1
284
         0
285
         0
286
         0
287
         0
288
         0
340
17
  0
ENDTAB
  0
TABLE
  2
BLOCK_RECORD
  5
1
100
AcDbSymbolTable
 70
        11
  0
BLOCK_RECORD
  5
A
100
AcDbSymbolTableRecord
100
AcDbBlockTableRecord
  2
*MODEL_SPACE
  0
BLOCK_RECORD
  5
B
100
AcDbSymbolTableRecord
100
AcDbBlockTableRecord
  2
*PAPER_SPACE
  0
BLOCK_RECORD
  5
56
100
AcDbSymbolTableRecord
100
AcDbBlockTableRecord
  2
*X0
  0
BLOCK_RECORD
  5
55
100
AcDbSymbolTableRecord
100
AcDbBlockTableRecord
  2
*X1
  0
BLOCK_RECORD
  5
59
100
AcDbSymbolTableRecord
100
AcDbBlockTableRecord
  2
*X2
  0
BLOCK_RECORD
  5
58
100
AcDbSymbolTableRecord
100
AcDbBlockTableRecord
  2
*X3
  0
BLOCK_RECORD
  5
5C
100
AcDbSymbolTableRecord
100
AcDbBlockTableRecord
  2
*X4
  0
BLOCK_RECORD
  5
5B
100
AcDbSymbolTableRecord
100
AcDbBlockTableRecord
  2
*X5
  0
BLOCK_RECORD
  5
5F
100
AcDbSymbolTableRecord
100
AcDbBlockTableRecord
  2
*X6
  0
BLOCK_RECORD
  5
5E
100
AcDbSymbolTableRecord
100
AcDbBlockTableRecord
  2
*X7
  0
BLOCK_RECORD
  5
61
100
AcDbSymbolTableRecord
100
AcDbBlockTableRecord
  2
*X8
  0
BLOCK_RECORD
  5
63
100
AcDbSymbolTableRecord
100
AcDbBlockTableRecord
  2
*X9
  0
BLOCK_RECORD
  5
65
100
AcDbSymbolTableRecord
100
AcDbBlockTableRecord
  2
*X10
  0
ENDTAB
  0
ENDSEC
  0
SECTION
  2
BLOCKS
  0
BLOCK
  5
D
100
AcDbEntity
  8
0
100
AcDbBlockBegin
  2
*MODEL_SPACE
 70
         0
 10
0.0
 20
0.0
 30
0.0
  3
*MODEL_SPACE
  1

  0
ENDBLK
  5
E
100
AcDbEntity
  8
0
100
AcDbBlockEnd
  0
BLOCK
  5
F
100
AcDbEntity
 67
         1
  8
0
100
AcDbBlockBegin
  2
*PAPER_SPACE
 70
         0
 10
0.0
 20
0.0
 30
0.0
  3
*PAPER_SPACE
  1

  0
ENDBLK
  5
10
100
AcDbEntity
 67
         1
  8
0
100
AcDbBlockEnd
  0
BLOCK
  5
67
100
AcDbEntity
  8
0
 62
         1
 48
0.0
100
AcDbBlockBegin
  2
*X0
 70
         1
 10
0.0
 20
0.0
 30
0.0
  3
*X0
  1

  0
LINE
  5
68
100
AcDbEntity
  8
E-20002-DC
  6
CONTINUOUS
 62
         7
100
AcDbLine
 10
8.8013474931
 20
13.5933026582
 30
0.0
 11
8.7413474931
 21
13.5933026582
 31
0.0
  0
ARC
  5
69
100
AcDbEntity
  8
E-20002-DC
  6
CONTINUOUS
 62
         7
100
AcDbCircle
 10
9.2214036318
 20
13.7308026582
 30
0.0
 40
0.0625
100
AcDbArc
 50
2.0000008572
 51
90.0
  0
ARC
  5
6A
100
AcDbEntity
  8
E-20002-DC
  6
CONTINUOUS
 62
         7
100
AcDbCircle
 10
4.7417657075
 20
13.7308026582
 30
0.0
 40
0.0625
100
AcDbArc
 50
90.0
 51
177.9999991428
  0
ARC
  5
6B
100
AcDbEntity
  8
E-20002-DC
  6
CONTINUOUS
 62
         7
100
AcDbCircle
 10
5.2039402172
 20
11.3558026582
 30
0.0
 40
0.0625
100
AcDbArc
 50
182.0000008572
 51
270.0
  0
ARC
  5
6C
100
AcDbEntity
  8
E-20002-DC
  6
CONTINUOUS
 62
         7
100
AcDbCircle
 10
8.7592291221
 20
11.3558026582
 30
0.0
 40
0.0625
100
AcDbArc
 50
270.0
 51
357.9999991428
  0
LINE
  5
6D
100
AcDbEntity
  8
E-20002-DC
  6
CONTINUOUS
 62
         7
100
AcDbLine
 10
5.2218218462
 20
13.5933026582
 30
0.0
 11
5.1618218462
 21
13.5933026582
 31
0.0
  0
CIRCLE
  5
6E
100
AcDbEntity
  8
E-20002-DC
  6
CONTINUOUS
 62
         7
100
AcDbCircle
 10
5.3415846696
 20
12.7933026582
 30
0.0
 40
0.068
  0
CIRCLE
  5
6F
100
AcDbEntity
  8
E-20002-DC
  6
CONTINUOUS
 62
         7
100
AcDbCircle
 10
8.6215846696
 20
12.7933026582
 30
0.0
 40
0.068
  0
LINE
  5
70
100
AcDbEntity
  8
E-20002-DC
  6
CONTINUOUS
 62
         7
100
AcDbLine
 10
5.5696313027
 20
11.9183026582
 30
0.0
 11
5.5381656978
 21
13.119925629
 31
0.0
  0
LINE
  5
71
100
AcDbEntity
  8
E-20002-DC
  6
CONTINUOUS
 62
         7
100
AcDbLine
 10
5.4761869437
 20
13.1803026582
 30
0.0
 11
5.1726366158
 21
13.1803026582
 31
0.0
  0
LINE
  5
72
100
AcDbEntity
  8
E-20002-DC
  6
CONTINUOUS
 62
         7
100
AcDbLine
 10
8.4250036415
 20
13.119925629
 30
0.0
 11
8.3935380366
 21
11.9183026582
 31
0.0
  0
LINE
  5
73
100
AcDbEntity
  8
E-20002-DC
  6
CONTINUOUS
 62
         7
100
AcDbLine
 10
8.7905327235
 20
13.1803026582
 30
0.0
 11
8.4869823956
 21
13.1803026582
 31
0.0
  0
LINE
  5
74
100
AcDbEntity
  8
E-20002-DC
  6
CONTINUOUS
 62
         7
100
AcDbLine
 10
5.1565846696
 20
13.7933026582
 30
0.0
 11
5.0540846696
 21
13.7933026582
 31
0.0
  0
LINE
  5
75
100
AcDbEntity
  8
E-20002-DC
  6
CONTINUOUS
 62
         7
100
AcDbLine
 10
8.9090846696
 20
13.7933026582
 30
0.0
 11
8.8065846696
 21
13.7933026582
 31
0.0
  0
LINE
  5
76
100
AcDbEntity
  8
E-20002-DC
  6
CONTINUOUS
 62
         7
100
AcDbLine
 10
8.9090846696
 20
12.4343026582
 30
0.0
 11
8.9090846696
 21
13.7308026582
 31
0.0
  0
LINE
  5
77
100
AcDbEntity
  8
E-20002-DC
  6
CONTINUOUS
 62
         7
100
AcDbLine
 10
5.1261242774
 20
11.7933026582
 30
0.0
 11
5.1037400546
 21
12.4343026582
 31
0.0
  0
LINE
  5
78
100
AcDbEntity
  8
E-20002-DC
  6
CONTINUOUS
 62
         7
100
AcDbLine
 10
5.0540846696
 20
12.4343026582
 30
0.0
 11
5.0540846696
 21
13.7308026582
 31
0.0
  0
LINE
  5
79
100
AcDbEntity
  8
E-20002-DC
  6
CONTINUOUS
 62
         7
100
AcDbLine
 10
5.1565846696
 20
13.7933026582
 30
0.0
 11
5.1726366158
 21
13.1803026582
 31
0.0
  0
LINE
  5
7A
100
AcDbEntity
  8
E-20002-DC
  6
CONTINUOUS
 62
         7
100
AcDbLine
 10
5.1037400546
 20
12.4343026582
 30
0.0
 11
5.0540846696
 21
12.4343026582
 31
0.0
  0
LINE
  5
7B
100
AcDbEntity
  8
E-20002-DC
  6
CONTINUOUS
 62
         7
100
AcDbLine
 10
5.1261242774
 20
11.7933026582
 30
0.0
 11
5.5729045429
 21
11.7933026582
 31
0.0
  0
LINE
  5
7C
100
AcDbEntity
  8
E-20002-DC
  6
CONTINUOUS
 62
         7
100
AcDbLine
 10
5.223125154
 20
13.5435312675
 30
0.0
 11
5.2218218462
 21
13.5933026582
 31
0.0
  0
LINE
  5
7D
100
AcDbEntity
  8
E-20002-DC
  6
CONTINUOUS
 62
         7
100
AcDbLine
 10
5.223125154
 20
13.5435312675
 30
0.0
 11
5.2326366158
 21
13.1803026582
 31
0.0
  0
LINE
  5
7E
100
AcDbEntity
  8
E-20002-DC
  6
CONTINUOUS
 62
         7
100
AcDbLine
 10
8.7905327235
 20
13.1803026582
 30
0.0
 11
8.8065846696
 21
13.7933026582
 31
0.0
  0
LINE
  5
7F
100
AcDbEntity
  8
E-20002-DC
  6
CONTINUOUS
 62
         7
100
AcDbLine
 10
5.5696313027
 20
11.9183026582
 30
0.0
 11
8.3935380366
 21
11.9183026582
 31
0.0
  0
LINE
  5
80
100
AcDbEntity
  8
E-20002-DC
  6
CONTINUOUS
 62
         7
100
AcDbLine
 10
8.7413474931
 20
13.5933026582
 30
0.0
 11
8.7400441853
 21
13.5435312675
 31
0.0
  0
LINE
  5
81
100
AcDbEntity
  8
E-20002-DC
  6
CONTINUOUS
 62
         7
100
AcDbLine
 10
8.7305327235
 20
13.1803026582
 30
0.0
 11
8.7400441853
 21
13.5435312675
 31
0.0
  0
LINE
  5
82
100
AcDbEntity
  8
E-20002-DC
  6
CONTINUOUS
 62
         7
100
AcDbLine
 10
8.3935380366
 20
11.9183026582
 30
0.0
 11
8.3902647964
 21
11.7933026582
 31
0.0
  0
LINE
  5
83
100
AcDbEntity
  8
E-20002-DC
  6
CONTINUOUS
 62
         7
100
AcDbLine
 10
8.8370450619
 20
11.7933026582
 30
0.0
 11
8.8594292847
 21
12.4343026582
 31
0.0
  0
LINE
  5
84
100
AcDbEntity
  8
E-20002-DC
  6
CONTINUOUS
 62
         7
100
AcDbLine
 10
5.5729045429
 20
11.7933026582
 30
0.0
 11
5.5696313027
 21
11.9183026582
 31
0.0
  0
LINE
  5
85
100
AcDbEntity
  8
E-20002-DC
  6
CONTINUOUS
 62
         7
100
AcDbLine
 10
8.8594292847
 20
12.4343026582
 30
0.0
 11
8.9090846696
 21
12.4343026582
 31
0.0
  0
LINE
  5
86
100
AcDbEntity
  8
E-20002-DC
  6
CONTINUOUS
 62
         7
100
AcDbLine
 10
8.3902647964
 20
11.7933026582
 30
0.0
 11
8.8370450619
 21
11.7933026582
 31
0.0
  0
LINE
  5
87
100
AcDbEntity
  8
E-20002-DC
  6
CONTINUOUS
 62
         7
100
AcDbLine
 10
8.8216910488
 20
11.3536214387
 30
0.0
 11
8.8370450619
 21
11.7933026582
 31
0.0
  0
LINE
  5
88
100
AcDbEntity
  8
E-20002-DC
  6
CONTINUOUS
 62
         7
100
AcDbLine
 10
8.9090846696
 20
12.4343026582
 30
0.0
 11
9.2971791459
 21
12.4343026582
 31
0.0
  0
LINE
  5
89
100
AcDbEntity
  8
E-20002-DC
  6
CONTINUOUS
 62
         7
100
AcDbLine
 10
5.0540846696
 20
12.4343026582
 30
0.0
 11
4.6659901934
 21
12.4343026582
 31
0.0
  0
LINE
  5
8A
100
AcDbEntity
  8
E-20002-DC
  6
CONTINUOUS
 62
         7
100
AcDbLine
 10
5.1414782905
 20
11.3536214387
 30
0.0
 11
5.1261242774
 21
11.7933026582
 31
0.0
  0
ARC
  5
8B
100
AcDbEntity
  8
E-20002-DC
  6
CONTINUOUS
 62
         7
100
AcDbCircle
 10
5.4761869437
 20
13.1183026582
 30
0.0
 40
0.062
100
AcDbArc
 50
1.5
 51
90.0
  0
ARC
  5
8C
100
AcDbEntity
  8
E-20002-DC
  6
CONTINUOUS
 62
         7
100
AcDbCircle
 10
8.4869823956
 20
13.1183026582
 30
0.0
 40
0.062
100
AcDbArc
 50
90.0
 51
178.5
  0
LINE
  5
8D
100
AcDbEntity
  8
E-20002-DC
  6
CONTINUOUS
 62
         7
100
AcDbLine
 10
4.6792276109
 20
13.7308026582
 30
0.0
 11
4.6595846696
 21
13.1683026582
 31
0.0
  0
LINE
  5
8E
100
AcDbEntity
  8
E-20002-DC
  6
CONTINUOUS
 62
         7
100
AcDbLine
 10
9.2839417284
 20
13.7308026582
 30
0.0
 11
9.3035846696
 21
13.1683026582
 31
0.0
  0
LINE
  5
8F
100
AcDbEntity
  8
E-20002-DC
  6
CONTINUOUS
 62
         7
100
AcDbLine
 10
4.6595846696
 20
13.1683026582
 30
0.0
 11
4.6659901934
 21
12.4343026582
 31
0.0
  0
LINE
  5
90
100
AcDbEntity
  8
E-20002-DC
  6
CONTINUOUS
 62
         7
100
AcDbLine
 10
9.3035846696
 20
13.1683026582
 30
0.0
 11
9.2971791459
 21
12.4343026582
 31
0.0
  0
LINE
  5
91
100
AcDbEntity
  8
E-20002-DC
  6
CONTINUOUS
 62
         7
100
AcDbLine
 10
4.6792276109
 20
13.7308026582
 30
0.0
 11
4.6793037808
 21
13.7329838777
 31
0.0
  0
LINE
  5
92
100
AcDbEntity
  8
E-20002-DC
  6
CONTINUOUS
 62
         7
100
AcDbLine
 10
5.0540846696
 20
13.7933026582
 30
0.0
 11
5.0540846696
 21
13.7308026582
 31
0.0
  0
LINE
  5
93
100
AcDbEntity
  8
E-20002-DC
  6
CONTINUOUS
 62
         7
100
AcDbLine
 10
4.7417657075
 20
13.7933026582
 30
0.0
 11
5.0540846696
 21
13.7933026582
 31
0.0
  0
LINE
  5
94
100
AcDbEntity
  8
E-20002-DC
  6
CONTINUOUS
 62
         7
100
AcDbLine
 10
9.2838655585
 20
13.7329838777
 30
0.0
 11
9.2839417284
 21
13.7308026582
 31
0.0
  0
LINE
  5
95
100
AcDbEntity
  8
E-20002-DC
  6
CONTINUOUS
 62
         7
100
AcDbLine
 10
8.9090846696
 20
13.7933026582
 30
0.0
 11
9.2214036318
 21
13.7933026582
 31
0.0
  0
LINE
  5
96
100
AcDbEntity
  8
E-20002-DC
  6
CONTINUOUS
 62
         7
100
AcDbLine
 10
8.9090846696
 20
13.7308026582
 30
0.0
 11
8.9090846696
 21
13.7933026582
 31
0.0
  0
LINE
  5
97
100
AcDbEntity
  8
E-20002-DC
  6
CONTINUOUS
 62
         7
100
AcDbLine
 10
8.7592291221
 20
11.2933026582
 30
0.0
 11
5.2039402172
 21
11.2933026582
 31
0.0
  0
ARC
  5
98
100
AcDbEntity
  8
FIT-20001
  6
CONTINUOUS
 62
         7
100
AcDbCircle
 10
9.2225846696
 20
13.7213026582
 30
0.0
 40
0.219
100
AcDbArc
 50
0.0
 51
90.0
  0
LINE
  5
99
100
AcDbEntity
  8
FIT-20001
  6
CONTINUOUS
 62
         7
100
AcDbLine
 10
4.6465846696
 20
13.7213026582
 30
0.0
 11
4.6465846696
 21
11.8153026582
 31
0.0
  0
LINE
  5
9A
100
AcDbEntity
  8
FIT-20001
  6
CONTINUOUS
 62
         7
100
AcDbLine
 10
9.2225846696
 20
13.8153026582
 30
0.0
 11
4.7405846696
 21
13.8153026582
 31
0.0
  0
LINE
  5
9B
100
AcDbEntity
  8
FIT-20001
  6
CONTINUOUS
 62
         7
100
AcDbLine
 10
4.5215846696
 20
11.8153026582
 30
0.0
 11
4.6465846696
 21
11.8153026582
 31
0.0
  0
LINE
  5
9C
100
AcDbEntity
  8
FIT-20001
  6
CONTINUOUS
 62
         7
100
AcDbLine
 10
9.3165846696
 20
11.8153026582
 30
0.0
 11
9.4415846696
 21
11.8153026582
 31
0.0
  0
LINE
  5
9D
100
AcDbEntity
  8
FIT-20001
  6
CONTINUOUS
 62
         7
100
AcDbLine
 10
9.4415846696
 20
11.8153026582
 30
0.0
 11
9.4415846696
 21
13.7213026582
 31
0.0
  0
LINE
  5
9E
100
AcDbEntity
  8
FIT-20001
  6
CONTINUOUS
 62
         7
100
AcDbLine
 10
4.5215846696
 20
13.7213026582
 30
0.0
 11
4.5215846696
 21
11.8153026582
 31
0.0
  0
LINE
  5
9F
100
AcDbEntity
  8
FIT-20001
  6
CONTINUOUS
 62
         7
100
AcDbLine
 10
9.2225846696
 20
13.9403026582
 30
0.0
 11
4.7405846696
 21
13.9403026582
 31
0.0
  0
ARC
  5
A0
100
AcDbEntity
  8
FIT-20001
  6
CONTINUOUS
 62
         7
100
AcDbCircle
 10
4.7405846696
 20
13.7213026582
 30
0.0
 40
0.094
100
AcDbArc
 50
90.0
 51
180.0
  0
ARC
  5
A1
100
AcDbEntity
  8
FIT-20001
  6
CONTINUOUS
 62
         7
100
AcDbCircle
 10
9.2225846696
 20
13.7213026582
 30
0.0
 40
0.094
100
AcDbArc
 50
0.0
 51
90.0
  0
ARC
  5
A2
100
AcDbEntity
  8
FIT-20001
  6
CONTINUOUS
 62
         7
100
AcDbCircle
 10
4.7405846696
 20
13.7213026582
 30
0.0
 40
0.219
100
AcDbArc
 50
90.0
 51
180.0
  0
LINE
  5
A3
100
AcDbEntity
  8
FIT-20001
  6
CONTINUOUS
 62
         7
100
AcDbLine
 10
9.3165846696
 20
11.8153026582
 30
0.0
 11
9.3165846696
 21
13.7213026582
 31
0.0
  0
LINE
  5
A4
100
AcDbEntity
  8
FIT-20006
  6
CONTINUOUS
 62
         7
100
AcDbLine
 10
5.2115846696
 20
13.6513026582
 30
0.0
 11
5.2115846696
 21
13.7413026582
 31
0.0
  0
LINE
  5
A5
100
AcDbEntity
  8
FIT-20006
  6
CONTINUOUS
 62
         7
100
AcDbLine
 10
8.7515846696
 20
13.6513026582
 30
0.0
 11
5.2115846696
 21
13.6513026582
 31
0.0
  0
LINE
  5
A6
100
AcDbEntity
  8
FIT-20006
  6
CONTINUOUS
 62
         7
100
AcDbLine
 10
8.7515846696
 20
13.7413026582
 30
0.0
 11
8.7515846696
 21
13.6513026582
 31
0.0
  0
LINE
  5
A7
100
AcDbEntity
  8
FIT-20006
  6
CONTINUOUS
 62
         7
100
AcDbLine
 10
8.7515846696
 20
13.6513026582
 30
0.0
 11
8.7515846696
 21
13.5933026582
 31
0.0
  0
LINE
  5
A8
100
AcDbEntity
  8
FIT-20006
  6
CONTINUOUS
 62
         7
100
AcDbLine
 10
5.2115846696
 20
13.5933026582
 30
0.0
 11
5.2115846696
 21
13.6513026582
 31
0.0
  0
LINE
  5
A9
100
AcDbEntity
  8
FIT-20006
  6
CONTINUOUS
 62
         7
100
AcDbLine
 10
6.3965846696
 20
10.8513026582
 30
0.0
 11
6.3965846696
 21
11.0433026582
 31
0.0
  0
LINE
  5
AA
100
AcDbEntity
  8
FIT-20006
  6
CONTINUOUS
 62
         7
100
AcDbLine
 10
7.5665846696
 20
10.8513026582
 30
0.0
 11
6.3965846696
 21
10.8513026582
 31
0.0
  0
LINE
  5
AB
100
AcDbEntity
  8
FIT-20006
  6
CONTINUOUS
 62
         7
100
AcDbLine
 10
7.5665846696
 20
11.0433026582
 30
0.0
 11
7.5665846696
 21
10.8513026582
 31
0.0
  0
LINE
  5
AC
100
AcDbEntity
  8
FIT-20006
  6
CONTINUOUS
 62
         7
100
AcDbLine
 10
5.2115846696
 20
13.7413026582
 30
0.0
 11
8.7515846696
 21
13.7413026582
 31
0.0
  0
ARC
  5
AD
100
AcDbEntity
  8
6-32X_5
  6
CONTINUOUS
 62
         7
100
AcDbCircle
 10
9.2975846696
 20
12.8883026582
 30
0.0
 40
0.194
100
AcDbArc
 50
24.353873018
 51
42.0750220508
  0
LINE
  5
AE
100
AcDbEntity
  8
6-32X_5
  6
CONTINUOUS
 62
         7
100
AcDbLine
 10
9.3007718076
 20
12.84598073
 30
0.0
 11
9.3025973313
 21
12.8491426281
 31
0.0
  0
LINE
  5
AF
100
AcDbEntity
  8
6-32X_5
  6
CONTINUOUS
 62
         7
100
AcDbLine
 10
9.3165846696
 20
12.9516894689
 30
0.0
 11
9.3025973313
 21
12.9274626883
 31
0.0
  0
LINE
  5
B0
100
AcDbEntity
  8
6-32X_5
  6
CONTINUOUS
 62
         7
100
AcDbLine
 10
9.4899995859
 20
12.9058026582
 30
0.0
 11
9.4734532285
 21
12.9058026582
 31
0.0
  0
ARC
  5
B1
100
AcDbEntity
  8
6-32X_5
  6
CONTINUOUS
 62
         7
100
AcDbCircle
 10
9.2975846696
 20
12.8883026582
 30
0.0
 40
0.1932090836
100
AcDbArc
 50
335.5399157551
 51
354.803286747
  0
ARC
  5
B2
100
AcDbEntity
  8
6-32X_5
  6
CONTINUOUS
 62
         7
100
AcDbCircle
 10
9.2975846696
 20
12.8883026582
 30
0.0
 40
0.1932090836
100
AcDbArc
 50
5.196713253
 51
24.4600842449
  0
LINE
  5
B3
100
AcDbEntity
  8
6-32X_5
  6
CONTINUOUS
 62
         7
100
AcDbLine
 10
9.4734532285
 20
12.8708026582
 30
0.0
 11
9.4899995859
 21
12.8708026582
 31
0.0
  0
ARC
  5
B4
100
AcDbEntity
  8
6-32X_5
  6
CONTINUOUS
 62
         7
100
AcDbCircle
 10
9.2975846696
 20
12.8883026582
 30
0.0
 40
0.1767370929
100
AcDbArc
 50
354.3174246293
 51
5.6825753707
  0
LINE
  5
B5
100
AcDbEntity
  8
6-32X_5
  6
CONTINUOUS
 62
         7
100
AcDbLine
 10
9.4734532285
 20
12.9683026582
 30
0.0
 11
9.4743217625
 21
12.9683026582
 31
0.0
  0
LINE
  5
B6
100
AcDbEntity
  8
6-32X_5
  6
CONTINUOUS
 62
         7
100
AcDbLine
 10
9.4734532285
 20
12.8083026582
 30
0.0
 11
9.4743217625
 21
12.8083026582
 31
0.0
  0
LINE
  5
B7
100
AcDbEntity
  8
6-32X_5
  6
CONTINUOUS
 62
         7
100
AcDbLine
 10
9.3025973313
 20
12.8491426281
 30
0.0
 11
9.3025973313
 21
12.9274626883
 31
0.0
  0
ARC
  5
B8
100
AcDbEntity
  8
6-32X_5
  6
CONTINUOUS
 62
         7
100
AcDbCircle
 10
9.2975846696
 20
12.8883026582
 30
0.0
 40
0.194
100
AcDbArc
 50
317.9249779492
 51
335.646126982
  0
LINE
  5
B9
100
AcDbEntity
  8
6-32X_5
  6
CONTINUOUS
 62
         7
100
AcDbLine
 10
9.3025973313
 20
12.9274626883
 30
0.0
 11
9.3014994845
 21
12.9293642136
 31
0.0
  0
LINE
  5
BA
100
AcDbEntity
  8
6-32X_5
  6
CONTINUOUS
 62
         7
100
AcDbLine
 10
9.3025973313
 20
12.8491426281
 30
0.0
 11
9.3165846696
 21
12.8249158474
 31
0.0
  0
LINE
  5
BB
100
AcDbEntity
  8
6-32X_5
  6
CONTINUOUS
 62
         7
100
AcDbLine
 10
4.4897161108
 20
12.9683026582
 30
0.0
 11
4.4888475768
 21
12.9683026582
 31
0.0
  0
ARC
  5
BC
100
AcDbEntity
  8
6-32X_5
  6
CONTINUOUS
 62
         7
100
AcDbCircle
 10
4.6655846696
 20
12.8883026582
 30
0.0
 40
0.1767370929
100
AcDbArc
 50
174.3174246293
 51
185.6825753707
  0
LINE
  5
BD
100
AcDbEntity
  8
6-32X_5
  6
CONTINUOUS
 62
         7
100
AcDbLine
 10
4.4731697534
 20
12.8708026582
 30
0.0
 11
4.4897161108
 21
12.8708026582
 31
0.0
  0
LINE
  5
BE
100
AcDbEntity
  8
6-32X_5
  6
CONTINUOUS
 62
         7
100
AcDbLine
 10
4.4897161108
 20
12.8083026582
 30
0.0
 11
4.4888475768
 21
12.8083026582
 31
0.0
  0
LINE
  5
BF
100
AcDbEntity
  8
6-32X_5
  6
CONTINUOUS
 62
         7
100
AcDbLine
 10
4.660572008
 20
12.8491426281
 30
0.0
 11
4.660572008
 21
12.9274626883
 31
0.0
  0
LINE
  5
C0
100
AcDbEntity
  8
6-32X_5
  6
CONTINUOUS
 62
         7
100
AcDbLine
 10
4.660572008
 20
12.8491426281
 30
0.0
 11
4.6623975317
 21
12.84598073
 31
0.0
  0
ARC
  5
C1
100
AcDbEntity
  8
6-32X_5
  6
CONTINUOUS
 62
         7
100
AcDbCircle
 10
4.6655846696
 20
12.8883026582
 30
0.0
 40
0.194
100
AcDbArc
 50
137.9249779492
 51
155.646126982
  0
LINE
  5
C2
100
AcDbEntity
  8
6-32X_5
  6
CONTINUOUS
 62
         7
100
AcDbLine
 10
4.660572008
 20
12.9274626883
 30
0.0
 11
4.6465846696
 21
12.9516894689
 31
0.0
  0
LINE
  5
C3
100
AcDbEntity
  8
6-32X_5
  6
CONTINUOUS
 62
         7
100
AcDbLine
 10
4.6616698548
 20
12.9293642136
 30
0.0
 11
4.660572008
 21
12.9274626883
 31
0.0
  0
ARC
  5
C4
100
AcDbEntity
  8
6-32X_5
  6
CONTINUOUS
 62
         7
100
AcDbCircle
 10
4.6655846696
 20
12.8883026582
 30
0.0
 40
0.194
100
AcDbArc
 50
204.353873018
 51
222.0750220508
  0
LINE
  5
C5
100
AcDbEntity
  8
6-32X_5
  6
CONTINUOUS
 62
         7
100
AcDbLine
 10
4.6465846696
 20
12.8249158474
 30
0.0
 11
4.660572008
 21
12.8491426281
 31
0.0
  0
ARC
  5
C6
100
AcDbEntity
  8
6-32X_5
  6
CONTINUOUS
 62
         7
100
AcDbCircle
 10
4.6655846696
 20
12.8883026582
 30
0.0
 40
0.1932090836
100
AcDbArc
 50
155.5399157551
 51
174.803286747
  0
ARC
  5
C7
100
AcDbEntity
  8
6-32X_5
  6
CONTINUOUS
 62
         7
100
AcDbCircle
 10
4.6655846696
 20
12.8883026582
 30
0.0
 40
0.1932090836
100
AcDbArc
 50
185.196713253
 51
204.4600842449
  0
LINE
  5
C8
100
AcDbEntity
  8
6-32X_5
  6
CONTINUOUS
 62
         7
100
AcDbLine
 10
4.4897161108
 20
12.9058026582
 30
0.0
 11
4.4731697534
 21
12.9058026582
 31
0.0
  0
LINE
  5
C9
100
AcDbEntity
  8
1_001_391
  6
CONTINUOUS
 62
         7
100
AcDbLine
 10
8.7940846696
 20
11.0433026582
 30
0.0
 11
8.6065846696
 21
11.0433026582
 31
0.0
  0
LINE
  5
CA
100
AcDbEntity
  8
1_001_391
  6
CONTINUOUS
 62
         7
100
AcDbLine
 10
8.7940846696
 20
11.2933026582
 30
0.0
 11
8.7940846696
 21
11.0433026582
 31
0.0
  0
LINE
  5
CB
100
AcDbEntity
  8
1_001_391
  6
CONTINUOUS
 62
         7
100
AcDbLine
 10
8.6065846696
 20
11.0433026582
 30
0.0
 11
5.3565846696
 21
11.0433026582
 31
0.0
  0
LINE
  5
CC
100
AcDbEntity
  8
1_001_391
  6
CONTINUOUS
 62
         7
100
AcDbLine
 10
8.7592291221
 20
11.2933026582
 30
0.0
 11
8.7940846696
 21
11.2933026582
 31
0.0
  0
LINE
  5
CD
100
AcDbEntity
  8
1_001_391
  6
CONTINUOUS
 62
         7
100
AcDbLine
 10
5.1690846696
 20
11.2933026582
 30
0.0
 11
5.2039402172
 21
11.2933026582
 31
0.0
  0
LINE
  5
CE
100
AcDbEntity
  8
1_001_391
  6
CONTINUOUS
 62
         7
100
AcDbLine
 10
5.1690846696
 20
11.0433026582
 30
0.0
 11
5.1690846696
 21
11.2933026582
 31
0.0
  0
LINE
  5
CF
100
AcDbEntity
  8
1_001_391
  6
CONTINUOUS
 62
         7
100
AcDbLine
 10
5.3565846696
 20
11.0433026582
 30
0.0
 11
5.1690846696
 21
11.0433026582
 31
0.0
  0
ENDBLK
  5
D0
100
AcDbEntity
  8
1_001_391
  6
CONTINUOUS
 62
         7
100
AcDbBlockEnd
  0
BLOCK
  5
D1
100
AcDbEntity
  8
0
 62
         1
 48
0.0
100
AcDbBlockBegin
  2
*X1
 70
         1
 10
0.0
 20
0.0
 30
0.0
  3
*X1
  1

  0
INSERT
  5
D2
100
AcDbEntity
  8
0
 62
         0
 48
0.0
100
AcDbBlockReference
  2
*X0
 10
0.0
 20
0.0
 30
0.0
  0
ENDBLK
  5
D3
100
AcDbEntity
  8
0
 62
         0
 48
0.0
100
AcDbBlockEnd
  0
BLOCK
  5
D4
100
AcDbEntity
  8
0
 62
         1
 48
0.0
100
AcDbBlockBegin
  2
*X2
 70
         1
 10
0.0
 20
0.0
 30
0.0
  3
*X2
  1

  0
LINE
  5
D5
100
AcDbEntity
  8
FIT-20001
  6
CONTINUOUS
 62
         7
100
AcDbLine
 10
9.4415846696
 20
17.4478023871
 30
0.0
 11
9.2225846696
 21
17.4478023871
 31
0.0
  0
LINE
  5
D6
100
AcDbEntity
  8
FIT-20001
  6
CONTINUOUS
 62
         7
100
AcDbLine
 10
9.4415846696
 20
22.0728023871
 30
0.0
 11
9.4415846696
 21
17.4478023871
 31
0.0
  0
LINE
  5
D7
100
AcDbEntity
  8
FIT-20001
  6
CONTINUOUS
 62
         7
100
AcDbLine
 10
9.2225846696
 20
22.0728023871
 30
0.0
 11
9.4415846696
 21
22.0728023871
 31
0.0
  0
LINE
  5
D8
100
AcDbEntity
  8
FIT-20001
  6
CONTINUOUS
 62
         7
100
AcDbLine
 10
9.2225846696
 20
17.4478023871
 30
0.0
 11
4.7405846696
 21
17.4478023871
 31
0.0
  0
LINE
  5
D9
100
AcDbEntity
  8
FIT-20001
  6
CONTINUOUS
 62
         7
100
AcDbLine
 10
4.5215846696
 20
22.0728023871
 30
0.0
 11
4.7405846696
 21
22.0728023871
 31
0.0
  0
LINE
  5
DA
100
AcDbEntity
  8
FIT-20001
  6
CONTINUOUS
 62
         7
100
AcDbLine
 10
4.5215846696
 20
17.4478023871
 30
0.0
 11
4.5215846696
 21
22.0728023871
 31
0.0
  0
LINE
  5
DB
100
AcDbEntity
  8
FIT-20001
  6
CONTINUOUS
 62
         7
100
AcDbLine
 10
4.7405846696
 20
17.4478023871
 30
0.0
 11
4.5215846696
 21
17.4478023871
 31
0.0
  0
LINE
  5
DC
100
AcDbEntity
  8
FIT-20001
  6
CONTINUOUS
 62
         7
100
AcDbLine
 10
9.2225846696
 20
22.0728023871
 30
0.0
 11
4.7405846696
 21
22.0728023871
 31
0.0
  0
LINE
  5
DD
100
AcDbEntity
  8
FIT-20001
  6
CONTINUOUS
 62
         7
100
AcDbLine
 10
4.7405846696
 20
22.0728023871
 30
0.0
 11
4.7405846696
 21
17.4478023871
 31
0.0
  0
LINE
  5
DE
100
AcDbEntity
  8
FIT-20001
  6
CONTINUOUS
 62
         7
100
AcDbLine
 10
9.2225846696
 20
17.4478023871
 30
0.0
 11
9.2225846696
 21
22.0728023871
 31
0.0
  0
ARC
  5
DF
100
AcDbEntity
  8
6-32X_5
  6
CONTINUOUS
 62
         7
100
AcDbCircle
 10
9.2975846696
 20
19.7603023871
 30
0.0
 40
0.194
100
AcDbArc
 50
317.9249779492
 51
335.646126982
  0
ARC
  5
E0
100
AcDbEntity
  8
6-32X_5
  6
CONTINUOUS
 62
         7
100
AcDbCircle
 10
9.2975846696
 20
19.7603023871
 30
0.0
 40
0.1932090836
100
AcDbArc
 50
335.5399157551
 51
354.803286747
  0
ARC
  5
E1
100
AcDbEntity
  8
6-32X_5
  6
CONTINUOUS
 62
         7
100
AcDbCircle
 10
9.2975846696
 20
19.7603023871
 30
0.0
 40
0.1932090836
100
AcDbArc
 50
5.196713253
 51
24.4600842449
  0
LINE
  5
E2
100
AcDbEntity
  8
6-32X_5
  6
CONTINUOUS
 62
         7
100
AcDbLine
 10
9.4734532285
 20
19.7428023871
 30
0.0
 11
9.4899995859
 21
19.7428023871
 31
0.0
  0
LINE
  5
E3
100
AcDbEntity
  8
6-32X_5
  6
CONTINUOUS
 62
         7
100
AcDbLine
 10
9.4734532285
 20
19.6803023871
 30
0.0
 11
9.4743217625
 21
19.6803023871
 31
0.0
  0
ARC
  5
E4
100
AcDbEntity
  8
6-32X_5
  6
CONTINUOUS
 62
         7
100
AcDbCircle
 10
9.2975846696
 20
19.7603023871
 30
0.0
 40
0.1767370929
100
AcDbArc
 50
354.3174246293
 51
5.6825753707
  0
LINE
  5
E5
100
AcDbEntity
  8
6-32X_5
  6
CONTINUOUS
 62
         7
100
AcDbLine
 10
9.4899995859
 20
19.7778023871
 30
0.0
 11
9.4734532285
 21
19.7778023871
 31
0.0
  0
LINE
  5
E6
100
AcDbEntity
  8
6-32X_5
  6
CONTINUOUS
 62
         7
100
AcDbLine
 10
9.4734532285
 20
19.8403023871
 30
0.0
 11
9.4743217625
 21
19.8403023871
 31
0.0
  0
ARC
  5
E7
100
AcDbEntity
  8
6-32X_5
  6
CONTINUOUS
 62
         7
100
AcDbCircle
 10
9.2975846696
 20
19.7603023871
 30
0.0
 40
0.194
100
AcDbArc
 50
24.353873018
 51
42.0750220508
  0
LINE
  5
E8
100
AcDbEntity
  8
6-32X_5
  6
CONTINUOUS
 62
         7
100
AcDbLine
 10
4.4897161108
 20
19.7778023871
 30
0.0
 11
4.4731697534
 21
19.7778023871
 31
0.0
  0
ARC
  5
E9
100
AcDbEntity
  8
6-32X_5
  6
CONTINUOUS
 62
         7
100
AcDbCircle
 10
4.6655846696
 20
19.7603023871
 30
0.0
 40
0.1767370929
100
AcDbArc
 50
174.3174246293
 51
185.6825753707
  0
LINE
  5
EA
100
AcDbEntity
  8
6-32X_5
  6
CONTINUOUS
 62
         7
100
AcDbLine
 10
4.4897161108
 20
19.6803023871
 30
0.0
 11
4.4888475768
 21
19.6803023871
 31
0.0
  0
LINE
  5
EB
100
AcDbEntity
  8
6-32X_5
  6
CONTINUOUS
 62
         7
100
AcDbLine
 10
4.4897161108
 20
19.8403023871
 30
0.0
 11
4.4888475768
 21
19.8403023871
 31
0.0
  0
ARC
  5
EC
100
AcDbEntity
  8
6-32X_5
  6
CONTINUOUS
 62
         7
100
AcDbCircle
 10
4.6655846696
 20
19.7603023871
 30
0.0
 40
0.194
100
AcDbArc
 50
137.9249779492
 51
155.646126982
  0
ARC
  5
ED
100
AcDbEntity
  8
6-32X_5
  6
CONTINUOUS
 62
         7
100
AcDbCircle
 10
4.6655846696
 20
19.7603023871
 30
0.0
 40
0.194
100
AcDbArc
 50
204.353873018
 51
222.0750220508
  0
LINE
  5
EE
100
AcDbEntity
  8
6-32X_5
  6
CONTINUOUS
 62
         7
100
AcDbLine
 10
4.4731697534
 20
19.7428023871
 30
0.0
 11
4.4897161108
 21
19.7428023871
 31
0.0
  0
ARC
  5
EF
100
AcDbEntity
  8
6-32X_5
  6
CONTINUOUS
 62
         7
100
AcDbCircle
 10
4.6655846696
 20
19.7603023871
 30
0.0
 40
0.1932090836
100
AcDbArc
 50
155.5399157551
 51
174.803286747
  0
ARC
  5
F0
100
AcDbEntity
  8
6-32X_5
  6
CONTINUOUS
 62
         7
100
AcDbCircle
 10
4.6655846696
 20
19.7603023871
 30
0.0
 40
0.1932090836
100
AcDbArc
 50
185.196713253
 51
204.4600842449
  0
ENDBLK
  5
F1
100
AcDbEntity
  8
6-32X_5
  6
CONTINUOUS
 62
         7
100
AcDbBlockEnd
  0
BLOCK
  5
F2
100
AcDbEntity
  8
0
 62
         1
 48
0.0
100
AcDbBlockBegin
  2
*X3
 70
         1
 10
0.0
 20
0.0
 30
0.0
  3
*X3
  1

  0
INSERT
  5
F3
100
AcDbEntity
  8
0
 62
         0
 48
0.0
100
AcDbBlockReference
  2
*X2
 10
0.0
 20
0.0
 30
0.0
  0
ENDBLK
  5
F4
100
AcDbEntity
  8
0
 62
         0
 48
0.0
100
AcDbBlockEnd
  0
BLOCK
  5
F5
100
AcDbEntity
  8
0
 62
         1
 48
0.0
100
AcDbBlockBegin
  2
*X4
 70
         1
 10
0.0
 20
0.0
 30
0.0
  3
*X4
  1

  0
ARC
  5
F6
100
AcDbEntity
  8
E-20002-DC
  6
CONTINUOUS
 62
         7
100
AcDbCircle
 10
16.2144278226
 20
11.3558026582
 30
0.0
 40
0.0625
100
AcDbArc
 50
270.0
 51
357.9999991428
  0
ARC
  5
F7
100
AcDbEntity
  8
E-20002-DC
  6
CONTINUOUS
 62
         7
100
AcDbCircle
 10
12.5851389176
 20
11.3558026582
 30
0.0
 40
0.0625
100
AcDbArc
 50
182.0000008572
 51
270.0
  0
LINE
  5
F8
100
AcDbEntity
  8
E-20002-DC
  6
CONTINUOUS
 62
         7
100
AcDbLine
 10
16.159987694
 20
11.8153026582
 30
0.0
 11
16.1594116046
 21
11.7933026582
 31
0.0
  0
LINE
  5
F9
100
AcDbEntity
  8
E-20002-DC
  6
CONTINUOUS
 62
         7
100
AcDbLine
 10
12.6401551356
 20
11.7933026582
 30
0.0
 11
12.6395790462
 21
11.8153026582
 31
0.0
  0
LINE
  5
FA
100
AcDbEntity
  8
E-20002-DC
  6
CONTINUOUS
 62
         7
100
AcDbLine
 10
16.2768897492
 20
11.3536214387
 30
0.0
 11
16.2922437623
 21
11.7933026582
 31
0.0
  0
LINE
  5
FB
100
AcDbEntity
  8
E-20002-DC
  6
CONTINUOUS
 62
         7
100
AcDbLine
 10
12.5065547206
 20
11.8153026582
 30
0.0
 11
12.5073229778
 21
11.7933026582
 31
0.0
  0
LINE
  5
FC
100
AcDbEntity
  8
E-20002-DC
  6
CONTINUOUS
 62
         7
100
AcDbLine
 10
16.1307833701
 20
11.7933026582
 30
0.0
 11
16.1307833701
 21
11.8153026582
 31
0.0
  0
LINE
  5
FD
100
AcDbEntity
  8
E-20002-DC
  6
CONTINUOUS
 62
         7
100
AcDbLine
 10
12.6687833701
 20
11.7933026582
 30
0.0
 11
12.6687833701
 21
11.8153026582
 31
0.0
  0
LINE
  5
FE
100
AcDbEntity
  8
E-20002-DC
  6
CONTINUOUS
 62
         7
100
AcDbLine
 10
16.2922437623
 20
11.7933026582
 30
0.0
 11
16.2930120196
 21
11.8153026582
 31
0.0
  0
LINE
  5
FF
100
AcDbEntity
  8
E-20002-DC
  6
CONTINUOUS
 62
         7
100
AcDbLine
 10
12.6687833701
 20
11.7933026582
 30
0.0
 11
12.5073229778
 21
11.7933026582
 31
0.0
  0
LINE
  5
100
100
AcDbEntity
  8
E-20002-DC
  6
CONTINUOUS
 62
         7
100
AcDbLine
 10
12.5226769909
 20
11.3536214387
 30
0.0
 11
12.5073229778
 21
11.7933026582
 31
0.0
  0
LINE
  5
101
100
AcDbEntity
  8
E-20002-DC
  6
CONTINUOUS
 62
         7
100
AcDbLine
 10
16.1307833701
 20
11.7933026582
 30
0.0
 11
16.2922437623
 21
11.7933026582
 31
0.0
  0
LINE
  5
102
100
AcDbEntity
  8
E-20002-DC
  6
CONTINUOUS
 62
         7
100
AcDbLine
 10
16.2144278226
 20
11.2933026582
 30
0.0
 11
16.1336682686
 21
11.2933026582
 31
0.0
  0
LINE
  5
103
100
AcDbEntity
  8
E-20002-DC
  6
CONTINUOUS
 62
         7
100
AcDbLine
 10
12.6658984716
 20
11.2933026582
 30
0.0
 11
12.5851389176
 21
11.2933026582
 31
0.0
  0
LINE
  5
104
100
AcDbEntity
  8
FIT-20001
  6
CONTINUOUS
 62
         7
100
AcDbLine
 10
12.0872833701
 20
13.7213026582
 30
0.0
 11
12.0872833701
 21
13.9403026582
 31
0.0
  0
LINE
  5
105
100
AcDbEntity
  8
FIT-20001
  6
CONTINUOUS
 62
         7
100
AcDbLine
 10
16.7122833701
 20
13.9403026582
 30
0.0
 11
16.7122833701
 21
13.7213026582
 31
0.0
  0
LINE
  5
106
100
AcDbEntity
  8
FIT-20001
  6
CONTINUOUS
 62
         7
100
AcDbLine
 10
12.0872833701
 20
11.8153026582
 30
0.0
 11
12.0872833701
 21
13.7213026582
 31
0.0
  0
LINE
  5
107
100
AcDbEntity
  8
FIT-20001
  6
CONTINUOUS
 62
         7
100
AcDbLine
 10
12.0872833701
 20
11.8153026582
 30
0.0
 11
16.7122833701
 21
11.8153026582
 31
0.0
  0
LINE
  5
108
100
AcDbEntity
  8
FIT-20001
  6
CONTINUOUS
 62
         7
100
AcDbLine
 10
12.0872833701
 20
13.9403026582
 30
0.0
 11
16.7122833701
 21
13.9403026582
 31
0.0
  0
LINE
  5
109
100
AcDbEntity
  8
FIT-20001
  6
CONTINUOUS
 62
         7
100
AcDbLine
 10
16.7122833701
 20
11.8153026582
 30
0.0
 11
16.7122833701
 21
13.7213026582
 31
0.0
  0
CIRCLE
  5
10A
100
AcDbEntity
  8
FIT-20001
  6
CONTINUOUS
 62
         7
100
AcDbCircle
 10
14.3997833701
 20
12.8883026582
 30
0.0
 40
0.1565
  0
LINE
  5
10B
100
AcDbEntity
  8
FIT-20006
  6
CONTINUOUS
 62
         7
100
AcDbLine
 10
14.5297833701
 20
11.0433026582
 30
0.0
 11
14.5297833701
 21
10.8513026582
 31
0.0
  0
LINE
  5
10C
100
AcDbEntity
  8
FIT-20006
  6
CONTINUOUS
 62
         7
100
AcDbLine
 10
14.5897833701
 20
11.0433026582
 30
0.0
 11
14.5897833701
 21
10.8513026582
 31
0.0
  0
LINE
  5
10D
100
AcDbEntity
  8
FIT-20006
  6
CONTINUOUS
 62
         7
100
AcDbLine
 10
14.5897833701
 20
10.8513026582
 30
0.0
 11
14.5297833701
 21
10.8513026582
 31
0.0
  0
LINE
  5
10E
100
AcDbEntity
  8
6-32X_5
  6
CONTINUOUS
 62
         7
100
AcDbLine
 10
14.3822833701
 20
12.9058026582
 30
0.0
 11
14.3197833701
 21
12.9058026582
 31
0.0
  0
LINE
  5
10F
100
AcDbEntity
  8
6-32X_5
  6
CONTINUOUS
 62
         7
100
AcDbLine
 10
14.3822833701
 20
12.8708026582
 30
0.0
 11
14.3822833701
 21
12.8083026582
 31
0.0
  0
LINE
  5
110
100
AcDbEntity
  8
6-32X_5
  6
CONTINUOUS
 62
         7
100
AcDbLine
 10
14.4172833701
 20
12.8083026582
 30
0.0
 11
14.4172833701
 21
12.8708026582
 31
0.0
  0
LINE
  5
111
100
AcDbEntity
  8
6-32X_5
  6
CONTINUOUS
 62
         7
100
AcDbLine
 10
14.4797833701
 20
12.9058026582
 30
0.0
 11
14.4172833701
 21
12.9058026582
 31
0.0
  0
LINE
  5
112
100
AcDbEntity
  8
6-32X_5
  6
CONTINUOUS
 62
         7
100
AcDbLine
 10
14.3822833701
 20
12.9683026582
 30
0.0
 11
14.3822833701
 21
12.9058026582
 31
0.0
  0
LINE
  5
113
100
AcDbEntity
  8
6-32X_5
  6
CONTINUOUS
 62
         7
100
AcDbLine
 10
14.4172833701
 20
12.8708026582
 30
0.0
 11
14.4797833701
 21
12.8708026582
 31
0.0
  0
LINE
  5
114
100
AcDbEntity
  8
6-32X_5
  6
CONTINUOUS
 62
         7
100
AcDbLine
 10
14.4172833701
 20
12.9058026582
 30
0.0
 11
14.4172833701
 21
12.9683026582
 31
0.0
  0
LINE
  5
115
100
AcDbEntity
  8
6-32X_5
  6
CONTINUOUS
 62
         7
100
AcDbLine
 10
14.3197833701
 20
12.8708026582
 30
0.0
 11
14.3822833701
 21
12.8708026582
 31
0.0
  0
CIRCLE
  5
116
100
AcDbEntity
  8
6-32X_5
  6
CONTINUOUS
 62
         7
100
AcDbCircle
 10
14.3997833701
 20
12.8883026582
 30
0.0
 40
0.13
  0
LINE
  5
117
100
AcDbEntity
  8
6-32X_5
  6
CONTINUOUS
 62
         7
100
AcDbLine
 10
14.3197833701
 20
12.9058026582
 30
0.0
 11
14.3197833701
 21
12.8708026582
 31
0.0
  0
LINE
  5
118
100
AcDbEntity
  8
6-32X_5
  6
CONTINUOUS
 62
         7
100
AcDbLine
 10
14.4172833701
 20
12.9683026582
 30
0.0
 11
14.3822833701
 21
12.9683026582
 31
0.0
  0
LINE
  5
119
100
AcDbEntity
  8
6-32X_5
  6
CONTINUOUS
 62
         7
100
AcDbLine
 10
14.4797833701
 20
12.8708026582
 30
0.0
 11
14.4797833701
 21
12.9058026582
 31
0.0
  0
LINE
  5
11A
100
AcDbEntity
  8
6-32X_5
  6
CONTINUOUS
 62
         7
100
AcDbLine
 10
14.3822833701
 20
12.8083026582
 30
0.0
 11
14.4172833701
 21
12.8083026582
 31
0.0
  0
LINE
  5
11B
100
AcDbEntity
  8
1_001_391
  6
CONTINUOUS
 62
         7
100
AcDbLine
 10
16.2122833701
 20
11.0433026582
 30
0.0
 11
16.0247833701
 21
11.0433026582
 31
0.0
  0
LINE
  5
11C
100
AcDbEntity
  8
1_001_391
  6
CONTINUOUS
 62
         7
100
AcDbLine
 10
16.0247833701
 20
11.0433026582
 30
0.0
 11
12.7747833701
 21
11.0433026582
 31
0.0
  0
LINE
  5
11D
100
AcDbEntity
  8
1_001_391
  6
CONTINUOUS
 62
         7
100
AcDbLine
 10
12.7747833701
 20
11.0433026582
 30
0.0
 11
12.5872833701
 21
11.0433026582
 31
0.0
  0
LINE
  5
11E
100
AcDbEntity
  8
1_001_391
  6
CONTINUOUS
 62
         7
100
AcDbLine
 10
12.5872833701
 20
11.0433026582
 30
0.0
 11
12.5872833701
 21
11.2933026582
 31
0.0
  0
LINE
  5
11F
100
AcDbEntity
  8
1_001_391
  6
CONTINUOUS
 62
         7
100
AcDbLine
 10
16.0247833701
 20
11.2933026582
 30
0.0
 11
12.7747833701
 21
11.2933026582
 31
0.0
  0
LINE
  5
120
100
AcDbEntity
  8
1_001_391
  6
CONTINUOUS
 62
         7
100
AcDbLine
 10
12.5872833701
 20
11.2933026582
 30
0.0
 11
12.7747833701
 21
11.2933026582
 31
0.0
  0
LINE
  5
121
100
AcDbEntity
  8
1_001_391
  6
CONTINUOUS
 62
         7
100
AcDbLine
 10
16.0247833701
 20
11.2933026582
 30
0.0
 11
16.2122833701
 21
11.2933026582
 31
0.0
  0
LINE
  5
122
100
AcDbEntity
  8
1_001_391
  6
CONTINUOUS
 62
         7
100
AcDbLine
 10
16.2122833701
 20
11.2933026582
 30
0.0
 11
16.2122833701
 21
11.0433026582
 31
0.0
  0
ENDBLK
  5
123
100
AcDbEntity
  8
1_001_391
  6
CONTINUOUS
 62
         7
100
AcDbBlockEnd
  0
BLOCK
  5
124
100
AcDbEntity
  8
0
 62
         1
 48
0.0
100
AcDbBlockBegin
  2
*X5
 70
         1
 10
0.0
 20
0.0
 30
0.0
  3
*X5
  1

  0
INSERT
  5
125
100
AcDbEntity
  8
0
 62
         0
 48
0.0
100
AcDbBlockReference
  2
*X4
 10
0.0
 20
0.0
 30
0.0
  0
ENDBLK
  5
126
100
AcDbEntity
  8
0
 62
         0
 48
0.0
100
AcDbBlockEnd
  0
BLOCK
  5
127
100
AcDbEntity
  8
0
 62
         1
 48
0.0
100
AcDbBlockBegin
  2
*X6
 70
         1
 10
0.0
 20
0.0
 30
0.0
  3
*X6
  1

  0
LINE
  5
128
100
AcDbEntity
  8
E-20002-DC
  6
CONTINUOUS
 62
         7
100
AcDbLine
 10
14.6419153375
 20
18.8891613428
 30
0.0
 11
14.6419153375
 21
18.8418045411
 31
0.0
  0
ELLIPSE
  5
129
100
AcDbEntity
  8
E-20002-DC
  6
CONTINUOUS
 62
         7
100
AcDbEllipse
 10
14.4990797677
 20
18.8483365137
 30
0.0
 11
0.0929999999999999
 21
-0.0000000000000002
 31
0.0
210
0.0
220
0.0
230
1.0
 40
0.5773502692
 41
0.7853981633974231
 42
2.6848897521176598
  0
LINE
  5
12A
100
AcDbEntity
  8
E-20002-DC
  6
CONTINUOUS
 62
         7
100
AcDbLine
 10
14.9806194857
 20
17.0675306895
 30
0.0
 11
15.0226923392
 21
17.0918214628
 31
0.0
  0
LINE
  5
12B
100
AcDbEntity
  8
E-20002-DC
  6
CONTINUOUS
 62
         7
100
AcDbLine
 10
12.4041505919
 20
18.5550556989
 30
0.0
 11
14.9806194857
 21
17.0675306895
 31
0.0
  0
LINE
  5
12C
100
AcDbEntity
  8
E-20002-DC
  6
CONTINUOUS
 62
         7
100
AcDbLine
 10
14.866928372
 20
18.8070150567
 30
0.0
 11
14.8162575388
 21
18.7777602375
 31
0.0
  0
LINE
  5
12D
100
AcDbEntity
  8
E-20002-DC
  6
CONTINUOUS
 62
         7
100
AcDbLine
 10
14.6419153375
 20
18.8418045411
 30
0.0
 11
14.6850488511
 21
18.8667076868
 31
0.0
  0
LINE
  5
12E
100
AcDbEntity
  8
E-20002-DC
  6
CONTINUOUS
 62
         7
100
AcDbLine
 10
14.6680782884
 20
18.9042665295
 30
0.0
 11
14.6419153375
 21
18.8891613428
 31
0.0
  0
ELLIPSE
  5
12F
100
AcDbEntity
  8
E-20002-DC
  6
CONTINUOUS
 62
         7
100
AcDbEllipse
 10
14.4990797677
 20
18.8956933154
 30
0.0
 11
0.0930000000000001
 21
-0.0000000000000002
 31
0.0
210
0.0
220
0.0
230
1.0
 40
0.5773502692
 41
0.7853981633974249
 42
3.9269908169872449
  0
LINE
  5
130
100
AcDbEntity
  8
E-20002-DC
  6
CONTINUOUS
 62
         7
100
AcDbLine
 10
14.5648406983
 20
18.8863036047
 30
0.0
 11
14.6419153375
 21
18.8418045411
 31
0.0
  0
LINE
  5
131
100
AcDbEntity
  8
E-20002-DC
  6
CONTINUOUS
 62
         7
100
AcDbLine
 10
14.5648406983
 20
18.9336604064
 30
0.0
 11
14.5648406983
 21
18.8863036047
 31
0.0
  0
ELLIPSE
  5
132
100
AcDbEntity
  8
E-20002-DC
  6
CONTINUOUS
 62
         7
100
AcDbEllipse
 10
15.0067824366
 20
18.5552142412
 30
0.0
 11
0.5390000000000005
 21
0.0000000000000002
 31
0.0
210
0.0
220
0.0
230
1.0
 40
0.5773502692
 41
2.5296040241986546
 42
3.0654296280017106
  0
LINE
  5
133
100
AcDbEntity
  8
E-20002-DC
  6
CONTINUOUS
 62
         7
100
AcDbLine
 10
14.5656070683
 20
18.7813495785
 30
0.0
 11
14.5656070683
 21
18.7339927768
 31
0.0
  0
ELLIPSE
  5
134
100
AcDbEntity
  8
E-20002-DC
  6
CONTINUOUS
 62
         7
100
AcDbEllipse
 10
15.0067824366
 20
18.6025710429
 30
0.0
 11
0.5390000000000006
 21
0.0000000000000002
 31
0.0
210
0.0
220
0.0
230
1.0
 40
0.5773502692
 41
2.5296040241986546
 42
4.3054808196797554
  0
LINE
  5
135
100
AcDbEntity
  8
E-20002-DC
  6
CONTINUOUS
 62
         7
100
AcDbLine
 10
14.433318837
 20
18.8577262244
 30
0.0
 11
14.5656070683
 21
18.7813495785
 31
0.0
  0
LINE
  5
136
100
AcDbEntity
  8
E-20002-DC
  6
CONTINUOUS
 62
         7
100
AcDbLine
 10
14.6419153375
 20
18.8891613428
 30
0.0
 11
14.5648406983
 21
18.9336604064
 31
0.0
  0
ELLIPSE
  5
137
100
AcDbEntity
  8
E-20002-DC
  6
CONTINUOUS
 62
         7
100
AcDbEllipse
 10
12.4666505919
 20
18.5911400907
 30
0.0
 11
-0.0883883476483184
 21
-0.0
 31
0.0
210
0.0
220
0.0
230
1.0
 40
0.5773502692
 41
0.0349065999999145
 42
0.7853981633975329
  0
LINE
  5
138
100
AcDbEntity
  8
E-20002-DC
  6
CONTINUOUS
 62
         7
100
AcDbLine
 10
14.9806194857
 20
17.0675306895
 30
0.0
 11
14.9806194857
 21
17.0869185654
 31
0.0
  0
ELLIPSE
  5
139
100
AcDbEntity
  8
E-20002-DC
  6
CONTINUOUS
 62
         7
100
AcDbEllipse
 10
13.6566539565
 20
18.6017545463
 30
0.0
 11
0.1875000000000004
 21
0.0
 31
0.0
210
0.0
220
0.0
230
1.0
 40
0.5773502692
 41
2.3561944901923506
 42
3.9269908169872352
  0
LINE
  5
13A
100
AcDbEntity
  8
E-20002-DC
  6
CONTINUOUS
 62
         7
100
AcDbLine
 10
13.5240714351
 20
18.5252079918
 30
0.0
 11
14.7815678144
 21
17.7991921187
 31
0.0
  0
ELLIPSE
  5
13B
100
AcDbEntity
  8
E-20002-DC
  6
CONTINUOUS
 62
         7
100
AcDbEllipse
 10
13.6566539565
 20
18.5976720634
 30
0.0
 11
0.1875000000000002
 21
0.0000000000000006
 31
0.0
210
0.0
220
0.0
230
1.0
 40
0.5773502692
 41
2.3561944901923502
 42
3.1227353552371753
  0
LINE
  5
13C
100
AcDbEntity
  8
E-20002-DC
  6
CONTINUOUS
 62
         7
100
AcDbLine
 10
14.3069694592
 20
19.1303074857
 30
0.0
 11
13.5240714351
 21
18.6783011007
 31
0.0
  0
LINE
  5
13D
100
AcDbEntity
  8
E-20002-DC
  6
CONTINUOUS
 62
         7
100
AcDbLine
 10
14.2953021973
 20
19.119488906
 30
0.0
 11
13.5240714351
 21
18.6742186178
 31
0.0
  0
LINE
  5
13E
100
AcDbEntity
  8
E-20002-DC
  6
CONTINUOUS
 62
         7
100
AcDbLine
 10
13.5240714351
 20
18.6742186178
 30
0.0
 11
13.5240714351
 21
18.6783011007
 31
0.0
  0
ELLIPSE
  5
13F
100
AcDbEntity
  8
E-20002-DC
  6
CONTINUOUS
 62
         7
100
AcDbEllipse
 10
14.091460783
 20
19.131032246
 30
0.0
 11
-0.125
 21
-0.0000000000000002
 31
0.0
210
0.0
220
0.0
230
1.0
 40
0.5773502692
 41
3.1698806974661164
 42
6.2548972632776385
  0
ELLIPSE
  5
140
100
AcDbEntity
  8
E-20002-DC
  6
CONTINUOUS
 62
         7
100
AcDbEllipse
 10
14.091460783
 20
19.1351147289
 30
0.0
 11
-0.125
 21
-0.0
 31
0.0
210
0.0
220
0.0
230
1.0
 40
0.5773502692
 41
0.0
 42
6.2831853071795862
  0
ELLIPSE
  5
141
100
AcDbEntity
  8
E-20002-DC
  6
CONTINUOUS
 62
         7
100
AcDbEllipse
 10
12.6231254772
 20
19.7428085181
 30
0.0
 11
-0.0339999999999971
 21
0.0588897274573435
 31
0.0
210
0.0
220
0.0
230
1.0
 40
0.5773502692
 41
0.0
 42
6.2831853071795862
  0
ELLIPSE
  5
142
100
AcDbEntity
  8
E-20002-DC
  6
CONTINUOUS
 62
         7
100
AcDbEllipse
 10
14.9424357195
 20
18.4037541254
 30
0.0
 11
-0.033999999999997
 21
0.0588897274573436
 31
0.0
210
0.0
220
0.0
230
1.0
 40
0.5773502692
 41
0.0
 42
6.2831853071795862
  0
LINE
  5
143
100
AcDbEntity
  8
E-20002-DC
  6
CONTINUOUS
 62
         7
100
AcDbLine
 10
12.7849694932
 20
18.9088858826
 30
0.0
 11
12.7621292553
 21
19.9292411884
 31
0.0
  0
LINE
  5
144
100
AcDbEntity
  8
E-20002-DC
  6
CONTINUOUS
 62
         7
100
AcDbLine
 10
12.7183036579
 20
20.0038415467
 30
0.0
 11
12.5036611626
 21
20.1277654491
 31
0.0
  0
LINE
  5
145
100
AcDbEntity
  8
E-20002-DC
  6
CONTINUOUS
 62
         7
100
AcDbLine
 10
15.0162065908
 20
18.6771466698
 30
0.0
 11
14.8472575388
 21
18.7746894505
 31
0.0
  0
LINE
  5
146
100
AcDbEntity
  8
E-20002-DC
  6
CONTINUOUS
 62
         7
100
AcDbLine
 10
14.8034319414
 20
18.750694533
 30
0.0
 11
14.7788678685
 21
17.6816934873
 31
0.0
  0
LINE
  5
147
100
AcDbEntity
  8
E-20002-DC
  6
CONTINUOUS
 62
         7
100
AcDbLine
 10
12.3180089011
 20
19.5082698753
 30
0.0
 11
12.3180089011
 21
20.2786343994
 31
0.0
  0
LINE
  5
148
100
AcDbEntity
  8
E-20002-DC
  6
CONTINUOUS
 62
         7
100
AcDbLine
 10
12.4198322776
 20
19.5670576291
 30
0.0
 11
12.3180089011
 21
19.5082698753
 31
0.0
  0
LINE
  5
149
100
AcDbEntity
  8
E-20002-DC
  6
CONTINUOUS
 62
         7
100
AcDbLine
 10
12.4198322776
 20
19.5670576291
 30
0.0
 11
12.4198322776
 21
20.2198466455
 31
0.0
  0
LINE
  5
14A
100
AcDbEntity
  8
E-20002-DC
  6
CONTINUOUS
 62
         7
100
AcDbLine
 10
12.4707719728
 20
19.014273274
 30
0.0
 11
12.454943937
 21
19.5467859031
 31
0.0
  0
LINE
  5
14B
100
AcDbEntity
  8
E-20002-DC
  6
CONTINUOUS
 62
         7
100
AcDbLine
 10
12.5026705451
 20
20.1720199495
 30
0.0
 11
12.5036611626
 21
20.1277654491
 31
0.0
  0
LINE
  5
14C
100
AcDbEntity
  8
E-20002-DC
  6
CONTINUOUS
 62
         7
100
AcDbLine
 10
12.454943937
 20
19.5467859031
 30
0.0
 11
12.4198322776
 21
19.5670576291
 31
0.0
  0
LINE
  5
14D
100
AcDbEntity
  8
E-20002-DC
  6
CONTINUOUS
 62
         7
100
AcDbLine
 10
14.7586246498
 20
17.6700060595
 30
0.0
 11
14.7586246532
 21
17.7693955447
 31
0.0
  0
LINE
  5
14E
100
AcDbEntity
  8
E-20002-DC
  6
CONTINUOUS
 62
         7
100
AcDbLine
 10
14.7692276169
 20
17.6761276854
 30
0.0
 11
14.7788678685
 21
17.6816934873
 31
0.0
  0
LINE
  5
14F
100
AcDbEntity
  8
E-20002-DC
  6
CONTINUOUS
 62
         7
100
AcDbLine
 10
12.3566022345
 20
18.9483573449
 30
0.0
 11
12.6725235899
 21
18.7659600653
 31
0.0
  0
LINE
  5
150
100
AcDbEntity
  8
E-20002-DC
  6
CONTINUOUS
 62
         7
100
AcDbLine
 10
12.5414913754
 20
20.1496067327
 30
0.0
 11
12.5036611626
 21
20.1277654491
 31
0.0
  0
LINE
  5
151
100
AcDbEntity
  8
E-20002-DC
  6
CONTINUOUS
 62
         7
100
AcDbLine
 10
13.7555968858
 20
19.4486425894
 30
0.0
 11
13.7576784846
 21
19.3357237202
 31
0.0
  0
LINE
  5
152
100
AcDbEntity
  8
E-20002-DC
  6
CONTINUOUS
 62
         7
100
AcDbLine
 10
13.8003281379
 20
19.2991185507
 30
0.0
 11
13.7682342253
 21
19.3176479797
 31
0.0
  0
LINE
  5
153
100
AcDbEntity
  8
E-20002-DC
  6
CONTINUOUS
 62
         7
100
AcDbLine
 10
13.7980232927
 20
19.424147692
 30
0.0
 11
13.8003281379
 21
19.2991185507
 31
0.0
  0
LINE
  5
154
100
AcDbEntity
  8
E-20002-DC
  6
CONTINUOUS
 62
         7
100
AcDbLine
 10
12.8966904949
 20
18.8443837321
 30
0.0
 11
12.8454511594
 21
19.9741154696
 31
0.0
  0
LINE
  5
155
100
AcDbEntity
  8
E-20002-DC
  6
CONTINUOUS
 62
         7
100
AcDbLine
 10
12.7618210522
 20
18.9222506412
 30
0.0
 11
14.7586246532
 21
17.7693955447
 31
0.0
  0
LINE
  5
156
100
AcDbEntity
  8
E-20002-DC
  6
CONTINUOUS
 62
         7
100
AcDbLine
 10
14.7586246532
 20
17.7693955447
 30
0.0
 11
14.6639260702
 21
17.7147212922
 31
0.0
  0
LINE
  5
157
100
AcDbEntity
  8
E-20002-DC
  6
CONTINUOUS
 62
         7
100
AcDbLine
 10
12.6671224692
 20
18.8675763888
 30
0.0
 11
14.6639260702
 21
17.7147212922
 31
0.0
  0
LINE
  5
158
100
AcDbEntity
  8
E-20002-DC
  6
CONTINUOUS
 62
         7
100
AcDbLine
 10
12.4707719728
 20
19.014273274
 30
0.0
 11
12.3566022345
 21
18.9483573449
 31
0.0
  0
LINE
  5
159
100
AcDbEntity
  8
E-20002-DC
  6
CONTINUOUS
 62
         7
100
AcDbLine
 10
14.6639260702
 20
17.7147212922
 30
0.0
 11
14.6646981303
 21
17.6157775582
 31
0.0
  0
LINE
  5
15A
100
AcDbEntity
  8
E-20002-DC
  6
CONTINUOUS
 62
         7
100
AcDbLine
 10
13.8851809516
 20
19.3481083455
 30
0.0
 11
13.8844927239
 21
19.3742245426
 31
0.0
  0
LINE
  5
15B
100
AcDbEntity
  8
E-20002-DC
  6
CONTINUOUS
 62
         7
100
AcDbLine
 10
13.8003281379
 20
19.2991185507
 30
0.0
 11
13.8851809516
 21
19.3481083455
 31
0.0
  0
LINE
  5
15C
100
AcDbEntity
  8
E-20002-DC
  6
CONTINUOUS
 62
         7
100
AcDbLine
 10
12.4707719728
 20
19.014273274
 30
0.0
 11
12.6959904502
 21
18.8842433254
 31
0.0
  0
LINE
  5
15D
100
AcDbEntity
  8
E-20002-DC
  6
CONTINUOUS
 62
         7
100
AcDbLine
 10
12.7618210522
 20
18.9222506412
 30
0.0
 11
12.6671224692
 21
18.8675763888
 31
0.0
  0
LINE
  5
15E
100
AcDbEntity
  8
E-20002-DC
  6
CONTINUOUS
 62
         7
100
AcDbLine
 10
12.6725235899
 20
18.7659600653
 30
0.0
 11
12.6671224692
 21
18.8675763888
 31
0.0
  0
LINE
  5
15F
100
AcDbEntity
  8
E-20002-DC
  6
CONTINUOUS
 62
         7
100
AcDbLine
 10
14.7586246498
 20
17.6700060595
 30
0.0
 11
14.6646981303
 21
17.6157775582
 31
0.0
  0
LINE
  5
160
100
AcDbEntity
  8
E-20002-DC
  6
CONTINUOUS
 62
         7
100
AcDbLine
 10
14.6646981303
 20
17.6157775582
 30
0.0
 11
14.9806194857
 21
17.4333802786
 31
0.0
  0
LINE
  5
161
100
AcDbEntity
  8
E-20002-DC
  6
CONTINUOUS
 62
         7
100
AcDbLine
 10
14.7788678685
 20
17.6816934873
 30
0.0
 11
15.0226923392
 21
17.5409213635
 31
0.0
  0
LINE
  5
162
100
AcDbEntity
  8
E-20002-DC
  6
CONTINUOUS
 62
         7
100
AcDbLine
 10
15.0226923392
 20
17.4576710519
 30
0.0
 11
14.9806194857
 21
17.4333802786
 31
0.0
  0
LINE
  5
163
100
AcDbEntity
  8
E-20002-DC
  6
CONTINUOUS
 62
         7
100
AcDbLine
 10
14.9806194857
 20
17.0869185654
 30
0.0
 11
14.9806194857
 21
17.4333802786
 31
0.0
  0
LINE
  5
164
100
AcDbEntity
  8
E-20002-DC
  6
CONTINUOUS
 62
         7
100
AcDbLine
 10
12.3180089011
 20
19.5082698753
 30
0.0
 11
12.0435846652
 21
19.6667087817
 31
0.0
  0
LINE
  5
165
100
AcDbEntity
  8
E-20002-DC
  6
CONTINUOUS
 62
         7
100
AcDbLine
 10
12.3783160881
 20
18.5893591325
 30
0.0
 11
12.3566022345
 21
18.9483573449
 31
0.0
  0
LINE
  5
166
100
AcDbEntity
  8
E-20002-DC
  6
CONTINUOUS
 62
         7
100
AcDbLine
 10
13.7682342253
 20
19.3176479797
 30
0.0
 11
12.922603499
 21
18.8294228523
 31
0.0
  0
ELLIPSE
  5
167
100
AcDbEntity
  8
E-20002-DC
  6
CONTINUOUS
 62
         7
100
AcDbEllipse
 10
13.7682827212
 20
19.3299234275
 30
0.0
 11
-0.0074483060037455
 21
0.0130201805033219
 31
0.0
210
0.0
220
0.0
230
1.0
 40
0.5799839599
 41
0.8138851657458646
 42
2.3585015925407613
  0
LINE
  5
168
100
AcDbEntity
  8
E-20002-DC
  6
CONTINUOUS
 62
         7
100
AcDbLine
 10
12.9016715782
 20
18.8415079024
 30
0.0
 11
13.7576784846
 21
19.3357237202
 31
0.0
  0
ELLIPSE
  5
169
100
AcDbEntity
  8
E-20002-DC
  6
CONTINUOUS
 62
         7
100
AcDbEllipse
 10
14.7586246498
 20
17.6822577065
 30
0.0
 11
0.0150000000000002
 21
-0.0000000000132098
 31
0.0
210
0.0
220
0.0
230
1.0
 40
0.5777460235
 41
4.7123889898608899
 42
5.4974445289681606
  0
LINE
  5
16A
100
AcDbEntity
  8
E-20002-DC
  6
CONTINUOUS
 62
         7
100
AcDbLine
 10
12.7183036579
 20
20.0038415467
 30
0.0
 11
12.7561338707
 21
20.0256828302
 31
0.0
  0
LINE
  5
16B
100
AcDbEntity
  8
E-20002-DC
  6
CONTINUOUS
 62
         7
100
AcDbLine
 10
12.8426524748
 20
19.9757312908
 30
0.0
 11
12.7621292553
 21
19.9292411884
 31
0.0
  0
ELLIPSE
  5
16C
100
AcDbEntity
  8
E-20002-DC
  6
CONTINUOUS
 62
         7
100
AcDbEllipse
 10
12.7183036579
 20
19.9532187587
 30
0.0
 11
0.0309999999999968
 21
-0.053693575034637
 31
0.0
210
0.0
220
0.0
230
1.0
 40
0.5773502692
 41
0.8115781021774904
 42
2.3561944901924545
  0
LINE
  5
16D
100
AcDbEntity
  8
E-20002-DC
  6
CONTINUOUS
 62
         7
100
AcDbLine
 10
14.8850877516
 20
18.796530734
 30
0.0
 11
14.8472575388
 21
18.7746894505
 31
0.0
  0
ELLIPSE
  5
16E
100
AcDbEntity
  8
E-20002-DC
  6
CONTINUOUS
 62
         7
100
AcDbEllipse
 10
14.8472575388
 20
18.7240666625
 30
0.0
 11
0.0309999999999972
 21
-0.0536935750346367
 31
0.0
210
0.0
220
0.0
230
1.0
 40
0.5773502692
 41
2.3561944901923608
 42
3.9008108782074018
  0
LINE
  5
16F
100
AcDbEntity
  8
E-20002-DC
  6
CONTINUOUS
 62
         7
100
AcDbLine
 10
12.0442284015
 20
20.4367016445
 30
0.0
 11
12.0390552759
 21
20.2686323162
 31
0.0
  0
LINE
  5
170
100
AcDbEntity
  8
E-20002-DC
  6
CONTINUOUS
 62
         7
100
AcDbLine
 10
12.0390552759
 20
20.2686323162
 30
0.0
 11
12.0435846652
 21
19.6667087817
 31
0.0
  0
LINE
  5
171
100
AcDbEntity
  8
E-20002-DC
  6
CONTINUOUS
 62
         7
100
AcDbLine
 10
14.9806194857
 20
17.0869185654
 30
0.0
 11
15.0226923392
 21
17.1112093387
 31
0.0
  0
LINE
  5
172
100
AcDbEntity
  8
E-20002-DC
  6
CONTINUOUS
 62
         7
100
AcDbLine
 10
12.3783160881
 20
18.5893591325
 30
0.0
 11
14.9806194857
 21
17.0869185654
 31
0.0
  0
ELLIPSE
  5
173
100
AcDbEntity
  8
FIT-20001
  6
CONTINUOUS
 62
         7
100
AcDbEllipse
 10
14.9562243017
 20
18.678709349
 30
0.0
 11
0.1094999999999907
 21
-0.1896595634287977
 31
0.0
210
0.0
220
0.0
230
1.0
 40
0.5773502692
 41
0.7853981633975273
 42
2.356194490192439
  0
LINE
  5
174
100
AcDbEntity
  8
FIT-20001
  6
CONTINUOUS
 62
         7
100
AcDbLine
 10
18.3814495498
 20
20.4774513168
 30
0.0
 11
15.1110806868
 21
18.5893029734
 31
0.0
  0
ELLIPSE
  5
175
100
AcDbEntity
  8
FIT-20001
  6
CONTINUOUS
 62
         7
100
AcDbEllipse
 10
18.2265931647
 20
20.5668576924
 30
0.0
 11
-0.1094999999999914
 21
0.1896595634287974
 31
0.0
210
0.0
220
0.0
230
1.0
 40
0.5773502692
 41
3.9269908169873071
 42
5.4977871437822099
  0
LINE
  5
176
100
AcDbEntity
  8
FIT-20001
  6
CONTINUOUS
 62
         7
100
AcDbLine
 10
11.720503671
 20
18.9906110429
 30
0.0
 11
12.4588054735
 21
19.4168697873
 31
0.0
  0
LINE
  5
177
100
AcDbEntity
  8
FIT-20001
  6
CONTINUOUS
 62
         7
100
AcDbLine
 10
11.7869717084
 20
20.5852288655
 30
0.0
 11
11.720503671
 21
20.5468535262
 31
0.0
  0
LINE
  5
178
100
AcDbEntity
  8
FIT-20001
  6
CONTINUOUS
 62
         7
100
AcDbLine
 10
11.720503671
 20
20.5468535262
 30
0.0
 11
11.720503671
 21
18.9906110429
 31
0.0
  0
LINE
  5
179
100
AcDbEntity
  8
FIT-20001
  6
CONTINUOUS
 62
         7
100
AcDbLine
 10
14.9562243017
 20
18.7554600276
 30
0.0
 11
11.7869717084
 21
20.5852288655
 31
0.0
  0
LINE
  5
17A
100
AcDbEntity
  8
FIT-20001
  6
CONTINUOUS
 62
         7
100
AcDbLine
 10
15.1110806868
 20
17.0330604902
 30
0.0
 11
15.1110806868
 21
18.5893029734
 31
0.0
  0
LINE
  5
17B
100
AcDbEntity
  8
FIT-20001
  6
CONTINUOUS
 62
         7
100
AcDbLine
 10
11.6321153234
 20
20.5978845625
 30
0.0
 11
11.6321153234
 21
19.0416420793
 31
0.0
  0
LINE
  5
17C
100
AcDbEntity
  8
FIT-20001
  6
CONTINUOUS
 62
         7
100
AcDbLine
 10
11.6321153234
 20
19.0416420793
 30
0.0
 11
11.720503671
 21
18.9906110429
 31
0.0
  0
LINE
  5
17D
100
AcDbEntity
  8
FIT-20001
  6
CONTINUOUS
 62
         7
100
AcDbLine
 10
15.0226923392
 20
17.0840915265
 30
0.0
 11
15.1110806868
 21
17.0330604902
 31
0.0
  0
LINE
  5
17E
100
AcDbEntity
  8
FIT-20001
  6
CONTINUOUS
 62
         7
100
AcDbLine
 10
15.1110806868
 20
17.0330604902
 30
0.0
 11
18.3814495498
 21
18.9212088336
 31
0.0
  0
LINE
  5
17F
100
AcDbEntity
  8
FIT-20001
  6
CONTINUOUS
 62
         7
100
AcDbLine
 10
14.9562243017
 20
18.8575221003
 30
0.0
 11
11.7869717084
 21
20.6872909381
 31
0.0
  0
ELLIPSE
  5
180
100
AcDbEntity
  8
FIT-20001
  6
CONTINUOUS
 62
         7
100
AcDbEllipse
 10
15.0573405714
 20
22.3966265303
 30
0.0
 11
0.1094999999999905
 21
-0.1896595634287978
 31
0.0
210
0.0
220
0.0
230
1.0
 40
0.5773502692
 41
2.356194490192459
 42
3.1415926535897931
  0
ELLIPSE
  5
181
100
AcDbEntity
  8
FIT-20001
  6
CONTINUOUS
 62
         7
100
AcDbEllipse
 10
11.7869717084
 20
20.5084781869
 30
0.0
 11
0.0469999999999956
 21
-0.0814063879557395
 31
0.0
210
0.0
220
0.0
230
1.0
 40
0.5773502692
 41
2.3561944901924505
 42
3.9269908169873702
  0
ELLIPSE
  5
182
100
AcDbEntity
  8
FIT-20001
  6
CONTINUOUS
 62
         7
100
AcDbEllipse
 10
14.9562243017
 20
18.678709349
 30
0.0
 11
-0.0469999999999958
 21
0.0814063879557395
 31
0.0
210
0.0
220
0.0
230
1.0
 40
0.5773502692
 41
3.9269908169873236
 42
5.4977871437821815
  0
LINE
  5
183
100
AcDbEntity
  8
FIT-20001
  6
CONTINUOUS
 62
         7
100
AcDbLine
 10
18.2265931647
 20
20.7456704437
 30
0.0
 11
15.0573405714
 21
22.5754392815
 31
0.0
  0
LINE
  5
184
100
AcDbEntity
  8
FIT-20001
  6
CONTINUOUS
 62
         7
100
AcDbLine
 10
15.0573405714
 20
22.5754392815
 30
0.0
 11
11.7869717084
 21
20.6872909381
 31
0.0
  0
ELLIPSE
  5
185
100
AcDbEntity
  8
FIT-20001
  6
CONTINUOUS
 62
         7
100
AcDbEllipse
 10
11.7869717084
 20
20.5084781869
 30
0.0
 11
0.1094999999999908
 21
-0.1896595634287977
 31
0.0
210
0.0
220
0.0
230
1.0
 40
0.5773502692
 41
2.3561944901924181
 42
3.9269908169873347
  0
LINE
  5
186
100
AcDbEntity
  8
FIT-20001
  6
CONTINUOUS
 62
         7
100
AcDbLine
 10
14.9562243017
 20
18.8575221003
 30
0.0
 11
18.2265931647
 21
20.7456704437
 31
0.0
  0
LINE
  5
187
100
AcDbEntity
  8
FIT-20001
  6
CONTINUOUS
 62
         7
100
AcDbLine
 10
18.3814495498
 20
18.9212088336
 30
0.0
 11
18.3814495498
 21
20.4774513168
 31
0.0
  0
LINE
  5
188
100
AcDbEntity
  8
FIT-20001
  6
CONTINUOUS
 62
         7
100
AcDbLine
 10
15.0226923392
 20
17.0840915265
 30
0.0
 11
15.0226923392
 21
18.6403340097
 31
0.0
  0
ELLIPSE
  5
189
100
AcDbEntity
  8
FIT-20001
  6
CONTINUOUS
 62
         7
100
AcDbEllipse
 10
16.6578767706
 20
18.9042665295
 30
0.0
 11
-0.0469999999999959
 21
-0.0814063879557397
 31
0.0
210
0.0
220
0.0
230
1.0
 40
0.5773502692
 41
0.4883965235461746
 42
0.679809154721766
  0
ELLIPSE
  5
18A
100
AcDbEntity
  8
FIT-20001
  6
CONTINUOUS
 62
         7
100
AcDbEllipse
 10
16.6578767706
 20
18.9042665295
 30
0.0
 11
-0.0469999999999959
 21
-0.0814063879557397
 31
0.0
210
0.0
220
0.0
230
1.0
 40
0.5773502692
 41
2.4617834988681007
 42
2.6531961300436384
  0
ELLIPSE
  5
18B
100
AcDbEntity
  8
FIT-20001
  6
CONTINUOUS
 62
         7
100
AcDbEllipse
 10
16.7462651183
 20
18.8532354932
 30
0.0
 11
-0.0782499999999933
 21
-0.1355329756922686
 31
0.0
210
0.0
220
0.0
230
1.0
 40
0.5773502692
 41
0.0
 42
6.2831853071795862
  0
ELLIPSE
  5
18C
100
AcDbEntity
  8
FIT-20001
  6
CONTINUOUS
 62
         7
100
AcDbEllipse
 10
16.6954255369
 20
18.8825877392
 30
0.0
 11
0.0469999999999957
 21
0.0814063879557397
 31
0.0
210
0.0
220
0.0
230
1.0
 40
0.5773502692
 41
0.0000000000000532
 42
0.2818986510111977
  0
ELLIPSE
  5
18D
100
AcDbEntity
  8
FIT-20001
  6
CONTINUOUS
 62
         7
100
AcDbEllipse
 10
16.6954255369
 20
18.8825877392
 30
0.0
 11
0.0469999999999957
 21
0.0814063879557397
 31
0.0
210
0.0
220
0.0
230
1.0
 40
0.5773502692
 41
2.8596940025811821
 42
3.2493636735199818
  0
ELLIPSE
  5
18E
100
AcDbEntity
  8
FIT-20001
  6
CONTINUOUS
 62
         7
100
AcDbEllipse
 10
16.6954255369
 20
18.8825877392
 30
0.0
 11
0.0469999999999957
 21
0.0814063879557397
 31
0.0
210
0.0
220
0.0
230
1.0
 40
0.5773502692
 41
6.1754142872501143
 42
6.2831853071795827
  0
LINE
  5
18F
100
AcDbEntity
  8
FIT-20001
  6
CONTINUOUS
 62
         7
100
AcDbLine
 10
14.9478405714
 20
22.5862860937
 30
0.0
 11
11.6774717084
 21
20.6981377503
 31
0.0
  0
LINE
  5
190
100
AcDbEntity
  8
FIT-20006
  6
CONTINUOUS
 62
         7
100
AcDbLine
 10
14.6850488511
 20
18.8944685705
 30
0.0
 11
13.9574359733
 21
19.3145560614
 31
0.0
  0
LINE
  5
191
100
AcDbEntity
  8
FIT-20006
  6
CONTINUOUS
 62
         7
100
AcDbLine
 10
14.6850488511
 20
18.4862202801
 30
0.0
 11
14.6850488511
 21
18.8944685705
 31
0.0
  0
LINE
  5
192
100
AcDbEntity
  8
FIT-20006
  6
CONTINUOUS
 62
         7
100
AcDbLine
 10
14.7958842956
 20
18.4222294064
 30
0.0
 11
14.6850488511
 21
18.4862202801
 31
0.0
  0
ELLIPSE
  5
193
100
AcDbEntity
  8
FIT-20006
  6
CONTINUOUS
 62
         7
100
AcDbEllipse
 10
13.9574359733
 20
19.4419295281
 30
0.0
 11
-0.077999999999993
 21
0.1350999629903765
 31
0.0
210
0.0
220
0.0
230
1.0
 40
0.5773502692
 41
1.8249543740669081
 42
2.3561944901924567
  0
ARC
  5
194
100
AcDbEntity
  8
6-32X_5
  6
CONTINUOUS
 62
         7
100
AcDbCircle
 10
16.6444417418
 20
18.912023247
 30
0.0
 40
0.194
100
AcDbArc
 50
305.3797569064
 51
354.6202430936
  0
LINE
  5
195
100
AcDbEntity
  8
6-32X_5
  6
CONTINUOUS
 62
         7
100
AcDbLine
 10
16.7575815642
 20
18.9651062069
 30
0.0
 11
16.6999506595
 21
18.9400880939
 31
0.0
  0
ELLIPSE
  5
196
100
AcDbEntity
  8
6-32X_5
  6
CONTINUOUS
 62
         7
100
AcDbEllipse
 10
16.6808639169
 20
18.8909948944
 30
0.0
 11
0.0329999999999971
 21
0.0571576766497746
 31
0.0
210
0.0
220
0.0
230
1.0
 40
0.5773502692
 41
0.0000000000000909
 42
0.1762261352294667
  0
ELLIPSE
  5
197
100
AcDbEntity
  8
6-32X_5
  6
CONTINUOUS
 62
         7
100
AcDbEllipse
 10
16.6808639169
 20
18.8909948944
 30
0.0
 11
0.0329999999999971
 21
0.0571576766497746
 31
0.0
210
0.0
220
0.0
230
1.0
 40
0.5773502692
 41
2.9653665183582265
 42
3.1415926535898033
  0
LINE
  5
198
100
AcDbEntity
  8
6-32X_5
  6
CONTINUOUS
 62
         7
100
AcDbLine
 10
16.7681252652
 20
18.8120371512
 30
0.0
 11
16.7387977216
 21
18.8289694164
 31
0.0
  0
ELLIPSE
  5
199
100
AcDbEntity
  8
6-32X_5
  6
CONTINUOUS
 62
         7
100
AcDbEllipse
 10
16.6444417418
 20
18.9263119372
 30
0.0
 11
0.1932090836373886
 21
0.0000000000000029
 31
0.0
210
0.0
220
0.0
230
1.0
 40
0.5773502692
 41
5.0708781383933532
 42
5.407087387235765
  0
LINE
  5
19A
100
AcDbEntity
  8
6-32X_5
  6
CONTINUOUS
 62
         7
100
AcDbLine
 10
16.7681252652
 20
18.8406145315
 30
0.0
 11
16.7928740026
 21
18.8263258413
 31
0.0
  0
LINE
  5
19B
100
AcDbEntity
  8
6-32X_5
  6
CONTINUOUS
 62
         7
100
AcDbLine
 10
16.7811739611
 20
18.7820498271
 30
0.0
 11
16.7649296138
 21
18.7914285054
 31
0.0
  0
LINE
  5
19C
100
AcDbEntity
  8
6-32X_5
  6
CONTINUOUS
 62
         7
100
AcDbLine
 10
16.7124162618
 20
18.8194041566
 30
0.0
 11
16.7195903688
 21
18.8235461292
 31
0.0
  0
ELLIPSE
  5
19D
100
AcDbEntity
  8
6-32X_5
  6
CONTINUOUS
 62
         7
100
AcDbEllipse
 10
16.6320673731
 20
18.9048789019
 30
0.0
 11
0.0966045418186844
 21
-0.1673239746718951
 31
0.0
210
0.0
220
0.0
230
1.0
 40
0.5773502692
 41
0.3584891580087293
 42
0.6946984068512078
  0
LINE
  5
19E
100
AcDbEntity
  8
6-32X_5
  6
CONTINUOUS
 62
         7
100
AcDbLine
 10
16.758639487
 20
18.8175137678
 30
0.0
 11
16.758639487
 21
18.8363330045
 31
0.0
  0
ELLIPSE
  5
19F
100
AcDbEntity
  8
6-32X_5
  6
CONTINUOUS
 62
         7
100
AcDbEllipse
 10
16.6568161105
 20
18.9191675921
 30
0.0
 11
0.0966045418186854
 21
-0.1673239746718982
 31
0.0
210
0.0
220
0.0
230
1.0
 40
0.5773502692
 41
0.3584891580087752
 42
0.6946984068511906
  0
LINE
  5
1A0
100
AcDbEntity
  8
6-32X_5
  6
CONTINUOUS
 62
         7
100
AcDbLine
 10
16.8253681349
 20
18.8585963816
 30
0.0
 11
16.8091237876
 21
18.8679750598
 31
0.0
  0
LINE
  5
1A1
100
AcDbEntity
  8
6-32X_5
  6
CONTINUOUS
 62
         7
100
AcDbLine
 10
16.758639487
 20
18.8911811859
 30
0.0
 11
16.758639487
 21
18.8994651311
 31
0.0
  0
ELLIPSE
  5
1A2
100
AcDbEntity
  8
6-32X_5
  6
CONTINUOUS
 62
         7
100
AcDbEllipse
 10
16.6444417418
 20
18.9263119372
 30
0.0
 11
0.1932090836373932
 21
0.0000000000000015
 31
0.0
210
0.0
220
0.0
230
1.0
 40
0.5773502692
 41
5.5884869003284656
 42
5.9246961491708499
  0
LINE
  5
1A3
100
AcDbEntity
  8
6-32X_5
  6
CONTINUOUS
 62
         7
100
AcDbLine
 10
16.7670902873
 20
18.8509702199
 30
0.0
 11
16.7833882243
 21
18.8603798383
 31
0.0
  0
ELLIPSE
  5
1A4
100
AcDbEntity
  8
6-32X_5
  6
CONTINUOUS
 62
         7
100
AcDbEllipse
 10
16.6320673731
 20
18.9048789019
 30
0.0
 11
0.0966045418186809
 21
-0.1673239746718972
 31
0.0
210
0.0
220
0.0
230
1.0
 40
0.5773502692
 41
0.876097919943889
 42
1.2123071687863138
  0
LINE
  5
1A5
100
AcDbEntity
  8
6-32X_5
  6
CONTINUOUS
 62
         7
100
AcDbLine
 10
16.6478639169
 20
18.8338372178
 30
0.0
 11
16.6498655811
 21
18.8326815564
 31
0.0
  0
ELLIPSE
  5
1A6
100
AcDbEntity
  8
6-32X_5
  6
CONTINUOUS
 62
         7
100
AcDbEllipse
 10
16.694205387
 20
18.8832921931
 30
0.0
 11
-0.0329999999999972
 21
-0.0571576766497745
 31
0.0
210
0.0
220
0.0
230
1.0
 40
0.5773502692
 41
3.8035710224155994
 42
3.8843677980486158
  0
ELLIPSE
  5
1A7
100
AcDbEntity
  8
6-32X_5
  6
CONTINUOUS
 62
         7
100
AcDbEllipse
 10
16.694205387
 20
18.8832921931
 30
0.0
 11
-0.0329999999999972
 21
-0.0571576766497745
 31
0.0
210
0.0
220
0.0
230
1.0
 40
0.5773502692
 41
5.5404101627189322
 42
5.6212069383538488
  0
ELLIPSE
  5
1A8
100
AcDbEntity
  8
6-32X_5
  6
CONTINUOUS
 62
         7
100
AcDbEllipse
 10
16.7462651183
 20
18.8532354932
 30
0.0
 11
-0.0649999999999941
 21
-0.1125833024919803
 31
0.0
210
0.0
220
0.0
230
1.0
 40
0.5773502692
 41
0.0000000000000015
 42
0.8998871279356808
  0
ELLIPSE
  5
1A9
100
AcDbEntity
  8
6-32X_5
  6
CONTINUOUS
 62
         7
100
AcDbEllipse
 10
16.7462651183
 20
18.8532354932
 30
0.0
 11
-0.0649999999999941
 21
-0.1125833024919803
 31
0.0
210
0.0
220
0.0
230
1.0
 40
0.5773502692
 41
2.2417055256541176
 42
6.2831853071795862
  0
ELLIPSE
  5
1AA
100
AcDbEntity
  8
6-32X_5
  6
CONTINUOUS
 62
         7
100
AcDbEllipse
 10
16.6444417418
 20
18.8977345569
 30
0.0
 11
0.1932090836373913
 21
0.000000000000001
 31
0.0
210
0.0
220
0.0
230
1.0
 40
0.5773502692
 41
5.0708781383933932
 42
5.4070873872358076
  0
ELLIPSE
  5
1AB
100
AcDbEntity
  8
6-32X_5
  6
CONTINUOUS
 62
         7
100
AcDbEllipse
 10
16.5878731993
 20
18.8793633838
 30
0.0
 11
0.0883685464404457
 21
-0.1530588122258988
 31
0.0
210
0.0
220
0.0
230
1.0
 40
0.5773502692
 41
0.6862185131869744
 42
0.8845778136081999
  0
ELLIPSE
  5
1AC
100
AcDbEntity
  8
6-32X_5
  6
CONTINUOUS
 62
         7
100
AcDbEllipse
 10
16.6444417418
 20
18.9773429735
 30
0.0
 11
0.1767370928809138
 21
-0.0000000000000001
 31
0.0
210
0.0
220
0.0
230
1.0
 40
0.5773502692
 41
5.3986074935715243
 42
5.5969667939927081
  0
ELLIPSE
  5
1AD
100
AcDbEntity
  8
6-32X_5
  6
CONTINUOUS
 62
         7
100
AcDbEllipse
 10
16.6568161105
 20
18.9191675921
 30
0.0
 11
0.0966045418186854
 21
-0.167323974671897
 31
0.0
210
0.0
220
0.0
230
1.0
 40
0.5773502692
 41
0.8760979199438741
 42
1.2123071687862961
  0
ELLIPSE
  5
1AE
100
AcDbEntity
  8
6-32X_5
  6
CONTINUOUS
 62
         7
100
AcDbEllipse
 10
16.6444417418
 20
18.8977345569
 30
0.0
 11
0.1932090836373848
 21
0.0000000000000143
 31
0.0
210
0.0
220
0.0
230
1.0
 40
0.5773502692
 41
5.5884869003284221
 42
5.9246961491708223
  0
LINE
  5
1AF
100
AcDbEntity
  8
6-32X_5
  6
CONTINUOUS
 62
         7
100
AcDbLine
 10
16.7635464589
 20
18.8718354869
 30
0.0
 11
16.7928740026
 21
18.8549032217
 31
0.0
  0
ELLIPSE
  5
1B0
100
AcDbEntity
  8
6-32X_5
  6
CONTINUOUS
 62
         7
100
AcDbEllipse
 10
16.7010102843
 20
18.9446831103
 30
0.0
 11
0.0883685464404317
 21
-0.1530588122258988
 31
0.0
210
0.0
220
0.0
230
1.0
 40
0.5773502692
 41
0.6862185131870525
 42
0.8845778136082781
  0
ELLIPSE
  5
1B1
100
AcDbEntity
  8
6-32X_5
  6
CONTINUOUS
 62
         7
100
AcDbEllipse
 10
16.6444417418
 20
18.8467035206
 30
0.0
 11
0.1767370928809206
 21
-0.0000000000000122
 31
0.0
210
0.0
220
0.0
230
1.0
 40
0.5773502692
 41
5.3986074935715846
 42
5.5969667939927961
  0
LINE
  5
1B2
100
AcDbEntity
  8
6-32X_5
  6
CONTINUOUS
 62
         7
100
AcDbLine
 10
16.6478913303
 20
18.8499186907
 30
0.0
 11
16.6550404613
 21
18.7874998067
 31
0.0
  0
LINE
  5
1B3
100
AcDbEntity
  8
6-32X_5
  6
CONTINUOUS
 62
         7
100
AcDbLine
 10
16.7158655811
 20
18.9469969097
 30
0.0
 11
16.7138639169
 21
18.9481525711
 31
0.0
  0
LINE
  5
1B4
100
AcDbEntity
  8
1_001_391
  6
CONTINUOUS
 62
         7
100
AcDbLine
 10
17.4923794754
 20
18.3510900959
 30
0.0
 11
17.4923794754
 21
18.4079039868
 31
0.0
  0
LINE
  5
1B5
100
AcDbEntity
  8
1_001_391
  6
CONTINUOUS
 62
         7
100
AcDbLine
 10
12.5211853977
 20
18.4874856223
 30
0.0
 11
12.5211853977
 21
18.3510900959
 31
0.0
  0
ELLIPSE
  5
1B6
100
AcDbEntity
  8
1_001_391
  6
CONTINUOUS
 62
         7
100
AcDbEllipse
 10
17.3048794754
 20
18.3510900959
 30
0.0
 11
-0.1874999999999996
 21
0.0000000000000001
 31
0.0
210
0.0
220
0.0
230
1.0
 40
0.5773502692
 41
2.3561944901923284
 42
3.1415926535897936
  0
LINE
  5
1B7
100
AcDbEntity
  8
1_001_391
  6
CONTINUOUS
 62
         7
100
AcDbLine
 10
17.4374619969
 20
18.2745435415
 30
0.0
 11
15.139364958
 21
16.9477365975
 31
0.0
  0
ELLIPSE
  5
1B8
100
AcDbEntity
  8
1_001_391
  6
CONTINUOUS
 62
         7
100
AcDbEllipse
 10
15.0067824366
 20
17.0242831519
 30
0.0
 11
0.1875000000000001
 21
0.0000000000000006
 31
0.0
210
0.0
220
0.0
230
1.0
 40
0.5773502692
 41
3.9269908169872454
 42
5.4977871437821442
  0
LINE
  5
1B9
100
AcDbEntity
  8
1_001_391
  6
CONTINUOUS
 62
         7
100
AcDbLine
 10
14.8741999151
 20
16.9477365975
 30
0.0
 11
12.5761028762
 21
18.2745435415
 31
0.0
  0
LINE
  5
1BA
100
AcDbEntity
  8
1_001_391
  6
CONTINUOUS
 62
         7
100
AcDbLine
 10
14.8741999151
 20
16.9477365975
 30
0.0
 11
14.8741999151
 21
17.1289720572
 31
0.0
  0
LINE
  5
1BB
100
AcDbEntity
  8
1_001_391
  6
CONTINUOUS
 62
         7
100
AcDbLine
 10
15.139364958
 20
17.0493904218
 30
0.0
 11
15.139364958
 21
16.9477365975
 31
0.0
  0
LINE
  5
1BC
100
AcDbEntity
  8
1_001_391
  6
CONTINUOUS
 62
         7
100
AcDbLine
 10
17.4374619969
 20
18.2745435415
 30
0.0
 11
17.4374619969
 21
18.3761973658
 31
0.0
  0
LINE
  5
1BD
100
AcDbEntity
  8
1_001_391
  6
CONTINUOUS
 62
         7
100
AcDbLine
 10
12.5761028762
 20
18.4557790012
 30
0.0
 11
12.5761028762
 21
18.2745435415
 31
0.0
  0
ELLIPSE
  5
1BE
100
AcDbEntity
  8
1_001_391
  6
CONTINUOUS
 62
         7
100
AcDbEllipse
 10
12.7086853977
 20
18.3510900959
 30
0.0
 11
0.1874999999999998
 21
-0.0000000000000002
 31
0.0
210
0.0
220
0.0
230
1.0
 40
0.5773502692
 41
3.1415926535897625
 42
3.9269908169872463
  0
ENDBLK
  5
1BF
100
AcDbEntity
  8
1_001_391
  6
CONTINUOUS
 62
         7
100
AcDbBlockEnd
  0
BLOCK
  5
1C0
100
AcDbEntity
  8
0
 62
         1
 48
0.0
100
AcDbBlockBegin
  2
*X7
 70
         1
 10
0.0
 20
0.0
 30
0.0
  3
*X7
  1

  0
INSERT
  5
1C1
100
AcDbEntity
  8
0
 62
         0
 48
0.0
100
AcDbBlockReference
  2
*X6
 10
0.0
 20
0.0
 30
0.0
  0
ENDBLK
  5
1C2
100
AcDbEntity
  8
0
 62
         0
 48
0.0
100
AcDbBlockEnd
  0
BLOCK
  5
1C3
100
AcDbEntity
  8
DEFAULT
 62
         1
 48
0.0
100
AcDbBlockBegin
  2
*X8
 70
         1
 10
0.0
 20
0.0
 30
0.0
  3
*X8
  1

  0
LINE
  5
1C4
100
AcDbEntity
  8
DEFAULT
  6
CONTINUOUS
 62
       136
100
AcDbLine
 10
16.4091567456
 20
16.8014488253
 30
0.0
 11
17.1917654412
 21
16.8014488253
 31
0.0
  0
POLYLINE
  5
1C5
100
AcDbEntity
  8
DEFAULT
  6
CONTINUOUS
 62
       136
100
AcDb2dPolyline
 66
         1
 10
0.0
 20
0.0
 30
0.0
  0
VERTEX
  5
1C6
100
AcDbEntity
  8
DEFAULT
  6
CONTINUOUS
 62
       136
100
AcDbVertex
100
AcDb2dVertex
 10
16.8365454848
 20
16.2868629216
 30
0.0
  0
VERTEX
  5
1C7
100
AcDbEntity
  8
DEFAULT
  6
CONTINUOUS
 62
       136
100
AcDbVertex
100
AcDb2dVertex
 10
16.8004610934
 20
16.0576962577
 30
0.0
  0
VERTEX
  5
1C8
100
AcDbEntity
  8
DEFAULT
  6
CONTINUOUS
 62
       136
100
AcDbVertex
100
AcDb2dVertex
 10
16.764376702
 20
16.3285295877
 30
0.0
  0
VERTEX
  5
1C9
100
AcDbEntity
  8
DEFAULT
  6
CONTINUOUS
 62
       136
100
AcDbVertex
100
AcDb2dVertex
 10
16.8365454848
 20
16.2868629216
 30
0.0
  0
SEQEND
  5
1CA
100
AcDbEntity
  8
DEFAULT
  6
CONTINUOUS
 62
       136
  0
POLYLINE
  5
1CB
100
AcDbEntity
  8
DEFAULT
  6
CONTINUOUS
 62
       136
100
AcDb2dPolyline
 66
         1
 10
0.0
 20
0.0
 30
0.0
  0
VERTEX
  5
1CC
100
AcDbEntity
  8
DEFAULT
  6
CONTINUOUS
 62
       136
100
AcDbVertex
100
AcDb2dVertex
 10
16.8365454848
 20
17.6113245377
 30
0.0
  0
VERTEX
  5
1CD
100
AcDbEntity
  8
DEFAULT
  6
CONTINUOUS
 62
       136
100
AcDbVertex
100
AcDb2dVertex
 10
16.8004610934
 20
17.8821578677
 30
0.0
  0
VERTEX
  5
1CE
100
AcDbEntity
  8
DEFAULT
  6
CONTINUOUS
 62
       136
100
AcDbVertex
100
AcDb2dVertex
 10
16.764376702
 20
17.6529912038
 30
0.0
  0
VERTEX
  5
1CF
100
AcDbEntity
  8
DEFAULT
  6
CONTINUOUS
 62
       136
100
AcDbVertex
100
AcDb2dVertex
 10
16.8365454848
 20
17.6113245377
 30
0.0
  0
SEQEND
  5
1D0
100
AcDbEntity
  8
DEFAULT
  6
CONTINUOUS
 62
       136
  0
LINE
  5
1D1
100
AcDbEntity
  8
DEFAULT
  6
CONTINUOUS
 62
       136
100
AcDbLine
 10
15.219333861
 20
16.9705604909
 30
0.0
 11
16.9087142676
 21
15.9951962584
 31
0.0
  0
LINE
  5
1D2
100
AcDbEntity
  8
DEFAULT
  6
CONTINUOUS
 62
       136
100
AcDbLine
 10
15.0644774759
 20
18.795022101
 30
0.0
 11
16.9087142676
 21
17.8196578685
 31
0.0
  0
LINE
  5
1D3
100
AcDbEntity
  8
DEFAULT
  6
CONTINUOUS
 62
       136
100
AcDbLine
 10
16.8004610934
 20
16.0576962577
 30
0.0
 11
16.8004610934
 21
16.7574270676
 31
0.0
  0
LINE
  5
1D4
100
AcDbEntity
  8
DEFAULT
  6
CONTINUOUS
 62
       136
100
AcDbLine
 10
16.8004610934
 20
17.1824270578
 30
0.0
 11
16.8004610934
 21
17.8821578677
 31
0.0
  0
TEXT
  5
1D5
100
AcDbEntity
  8
DEFAULT
  6
CONTINUOUS
 62
       136
100
AcDbText
 10
16.4091567456
 20
16.8449270862
 30
0.0
 40
0.25
  1
2 5/8
  7
ARIAL_TTF
 11
16.4091567456
 21
17.0949270862
 31
0.0
100
AcDbText
 73
         3
  0
ENDBLK
  5
1D6
100
AcDbEntity
  8
DEFAULT
  6
CONTINUOUS
 62
       136
100
AcDbBlockEnd
  0
BLOCK
  5
1D7
100
AcDbEntity
  8
DEFAULT
 62
         1
 48
0.0
100
AcDbBlockBegin
  2
*X9
 70
         1
 10
0.0
 20
0.0
 30
0.0
  3
*X9
  1

  0
LINE
  5
1D8
100
AcDbEntity
  8
DEFAULT
  6
CONTINUOUS
 62
       136
100
AcDbLine
 10
12.0944816808
 20
22.0035003227
 30
0.0
 11
12.8770903764
 21
22.0035003227
 31
0.0
  0
POLYLINE
  5
1D9
100
AcDbEntity
  8
DEFAULT
  6
CONTINUOUS
 62
       136
100
AcDb2dPolyline
 66
         1
 10
0.0
 20
0.0
 30
0.0
  0
VERTEX
  5
1DA
100
AcDbEntity
  8
DEFAULT
  6
CONTINUOUS
 62
       136
100
AcDbVertex
100
AcDb2dVertex
 10
11.0310236078
 20
21.3737377745
 30
0.0
  0
VERTEX
  5
1DB
100
AcDbEntity
  8
DEFAULT
  6
CONTINUOUS
 62
       136
100
AcDbVertex
100
AcDb2dVertex
 10
10.8506016509
 20
21.2279044429
 30
0.0
  0
VERTEX
  5
1DC
100
AcDbEntity
  8
DEFAULT
  6
CONTINUOUS
 62
       136
100
AcDbVertex
100
AcDb2dVertex
 10
11.1031923906
 20
21.3320711083
 30
0.0
  0
VERTEX
  5
1DD
100
AcDbEntity
  8
DEFAULT
  6
CONTINUOUS
 62
       136
100
AcDbVertex
100
AcDb2dVertex
 10
11.0310236078
 20
21.3737377745
 30
0.0
  0
SEQEND
  5
1DE
100
AcDbEntity
  8
DEFAULT
  6
CONTINUOUS
 62
       136
  0
POLYLINE
  5
1DF
100
AcDbEntity
  8
DEFAULT
  6
CONTINUOUS
 62
       136
100
AcDb2dPolyline
 66
         1
 10
0.0
 20
0.0
 30
0.0
  0
VERTEX
  5
1E0
100
AcDbEntity
  8
DEFAULT
  6
CONTINUOUS
 62
       136
100
AcDbVertex
100
AcDb2dVertex
 10
13.8683797742
 20
23.0118861209
 30
0.0
  0
VERTEX
  5
1E1
100
AcDbEntity
  8
DEFAULT
  6
CONTINUOUS
 62
       136
100
AcDbVertex
100
AcDb2dVertex
 10
14.1209705139
 20
23.1160527863
 30
0.0
  0
VERTEX
  5
1E2
100
AcDbEntity
  8
DEFAULT
  6
CONTINUOUS
 62
       136
100
AcDbVertex
100
AcDb2dVertex
 10
13.9405485569
 20
22.9702194547
 30
0.0
  0
VERTEX
  5
1E3
100
AcDbEntity
  8
DEFAULT
  6
CONTINUOUS
 62
       136
100
AcDbVertex
100
AcDb2dVertex
 10
13.8683797742
 20
23.0118861209
 30
0.0
  0
SEQEND
  5
1E4
100
AcDbEntity
  8
DEFAULT
  6
CONTINUOUS
 62
       136
  0
LINE
  5
1E5
100
AcDbEntity
  8
DEFAULT
  6
CONTINUOUS
 62
       136
100
AcDbLine
 10
11.6787185343
 20
20.7497909374
 30
0.0
 11
10.7423484767
 21
21.2904044421
 31
0.0
  0
LINE
  5
1E6
100
AcDbEntity
  8
DEFAULT
  6
CONTINUOUS
 62
       136
100
AcDbLine
 10
14.9490873973
 20
22.6379392808
 30
0.0
 11
14.0127173397
 21
23.1785527855
 31
0.0
  0
LINE
  5
1E7
100
AcDbEntity
  8
DEFAULT
  6
CONTINUOUS
 62
       136
100
AcDbLine
 10
10.8506016509
 20
21.2279044429
 30
0.0
 11
12.1177251999
 21
21.959478565
 31
0.0
  0
LINE
  5
1E8
100
AcDbEntity
  8
DEFAULT
  6
CONTINUOUS
 62
       136
100
AcDbLine
 10
12.8538468378
 20
22.3844785908
 30
0.0
 11
14.1209705139
 21
23.1160527863
 31
0.0
  0
TEXT
  5
1E9
100
AcDbEntity
  8
DEFAULT
  6
CONTINUOUS
 62
       136
100
AcDbText
 10
12.0944816808
 20
22.0469785835
 30
0.0
 40
0.25
  1
5 5/8
  7
ARIAL_TTF
 11
12.0944816808
 21
22.2969785835
 31
0.0
100
AcDbText
 73
         3
  0
ENDBLK
  5
1EA
100
AcDbEntity
  8
DEFAULT
  6
CONTINUOUS
 62
       136
100
AcDbBlockEnd
  0
BLOCK
  5
1EB
100
AcDbEntity
  8
DEFAULT
 62
         1
 48
0.0
100
AcDbBlockBegin
  2
*X10
 70
         1
 10
0.0
 20
0.0
 30
0.0
  3
*X10
  1

  0
LINE
  5
1EC
100
AcDbEntity
  8
DEFAULT
  6
CONTINUOUS
 62
       136
100
AcDbLine
 10
17.2133722698
 20
22.0506876605
 30
0.0
 11
18.3872853132
 21
22.0506876605
 31
0.0
  0
POLYLINE
  5
1ED
100
AcDbEntity
  8
DEFAULT
  6
CONTINUOUS
 62
       136
100
AcDb2dPolyline
 66
         1
 10
0.0
 20
0.0
 30
0.0
  0
VERTEX
  5
1EE
100
AcDbEntity
  8
DEFAULT
  6
CONTINUOUS
 62
       136
100
AcDbVertex
100
AcDb2dVertex
 10
16.3087400257
 20
23.122001763
 30
0.0
  0
VERTEX
  5
1EF
100
AcDbEntity
  8
DEFAULT
  6
CONTINUOUS
 62
       136
100
AcDbVertex
100
AcDb2dVertex
 10
16.056149286
 20
23.2261684284
 30
0.0
  0
VERTEX
  5
1F0
100
AcDbEntity
  8
DEFAULT
  6
CONTINUOUS
 62
       136
100
AcDbVertex
100
AcDb2dVertex
 10
16.2365712429
 20
23.0803350968
 30
0.0
  0
VERTEX
  5
1F1
100
AcDbEntity
  8
DEFAULT
  6
CONTINUOUS
 62
       136
100
AcDbVertex
100
AcDb2dVertex
 10
16.3087400257
 20
23.122001763
 30
0.0
  0
SEQEND
  5
1F2
100
AcDbEntity
  8
DEFAULT
  6
CONTINUOUS
 62
       136
  0
POLYLINE
  5
1F3
100
AcDbEntity
  8
DEFAULT
  6
CONTINUOUS
 62
       136
100
AcDb2dPolyline
 66
         1
 10
0.0
 20
0.0
 30
0.0
  0
VERTEX
  5
1F4
100
AcDbEntity
  8
DEFAULT
  6
CONTINUOUS
 62
       136
100
AcDbVertex
100
AcDb2dVertex
 10
19.3640863074
 20
21.3579967648
 30
0.0
  0
VERTEX
  5
1F5
100
AcDbEntity
  8
DEFAULT
  6
CONTINUOUS
 62
       136
100
AcDbVertex
100
AcDb2dVertex
 10
19.5445082643
 20
21.2121634332
 30
0.0
  0
VERTEX
  5
1F6
100
AcDbEntity
  8
DEFAULT
  6
CONTINUOUS
 62
       136
100
AcDbVertex
100
AcDb2dVertex
 10
19.2919175246
 20
21.3163300986
 30
0.0
  0
VERTEX
  5
1F7
100
AcDbEntity
  8
DEFAULT
  6
CONTINUOUS
 62
       136
100
AcDbVertex
100
AcDb2dVertex
 10
19.3640863074
 20
21.3579967648
 30
0.0
  0
SEQEND
  5
1F8
100
AcDbEntity
  8
DEFAULT
  6
CONTINUOUS
 62
       136
  0
LINE
  5
1F9
100
AcDbEntity
  8
DEFAULT
  6
CONTINUOUS
 62
       136
100
AcDbLine
 10
15.0560937456
 20
22.648786093
 30
0.0
 11
16.1644024601
 21
23.2886684277
 31
0.0
  0
LINE
  5
1FA
100
AcDbEntity
  8
DEFAULT
  6
CONTINUOUS
 62
       136
100
AcDbLine
 10
18.489702724
 20
20.5399513161
 30
0.0
 11
19.6527614385
 21
21.2746634325
 31
0.0
  0
LINE
  5
1FB
100
AcDbEntity
  8
DEFAULT
  6
CONTINUOUS
 62
       136
100
AcDbLine
 10
16.056149286
 20
23.2261684284
 30
0.0
 11
17.4322679628
 21
22.4316659399
 31
0.0
  0
LINE
  5
1FC
100
AcDbEntity
  8
DEFAULT
  6
CONTINUOUS
 62
       136
100
AcDbLine
 10
18.1683895875
 20
22.0066659217
 30
0.0
 11
19.5445082643
 21
21.2121634332
 31
0.0
  0
TEXT
  5
1FD
100
AcDbEntity
  8
DEFAULT
  6
CONTINUOUS
 62
       136
100
AcDbText
 10
17.2133722698
 20
22.0941659214
 30
0.0
 40
0.25
  1
4 15/16
  7
ARIAL_TTF
 11
17.2133722698
 21
22.3441659214
 31
0.0
100
AcDbText
 73
         3
  0
ENDBLK
  5
1FE
100
AcDbEntity
  8
DEFAULT
  6
CONTINUOUS
 62
       136
100
AcDbBlockEnd
  0
ENDSEC
  0
SECTION
  2
ENTITIES
  0
TEXT
  5
53
100
AcDbEntity
  8
DEFAULT
  6
CONTINUOUS
 62
         7
100
AcDbText
 10
8.8943960095
 20
8.5290177413
 30
0.0
 40
0.25
  1
SYSTEM: POKE-THRU
  7
ARIAL_TTF
 11
8.8943960095
 21
8.7790177413
 31
0.0
100
AcDbText
 73
         3
  0
TEXT
  5
54
100
AcDbEntity
  8
DEFAULT
  6
CONTINUOUS
 62
         7
100
AcDbText
 10
8.1253742704
 20
8.1377133934
 30
0.0
 40
0.25
  1
CATALOG NUMBER: 200-H/BTC
  7
ARIAL_TTF
 11
8.1253742704
 21
8.3877133934
 31
0.0
100
AcDbText
 73
         3
  0
INSERT
  5
57
100
AcDbEntity
  8
0
 62
         0
 48
0.0
100
AcDbBlockReference
  2
*X1
 10
0.0
 20
0.0
 30
0.0
  0
INSERT
  5
5A
100
AcDbEntity
  8
0
 62
         0
 48
0.0
100
AcDbBlockReference
  2
*X3
 10
0.0
 20
0.0
 30
0.0
  0
INSERT
  5
5D
100
AcDbEntity
  8
0
 62
         0
 48
0.0
100
AcDbBlockReference
  2
*X5
 10
0.0
 20
0.0
 30
0.0
  0
INSERT
  5
60
100
AcDbEntity
  8
0
 62
         0
 48
0.0
100
AcDbBlockReference
  2
*X7
 10
0.0
 20
0.0
 30
0.0
  0
INSERT
  5
62
100
AcDbEntity
  8
DEFAULT
 62
         0
 48
0.0
100
AcDbBlockReference
  2
*X8
 10
0.0
 20
0.0
 30
0.0
  0
INSERT
  5
64
100
AcDbEntity
  8
DEFAULT
 62
         0
 48
0.0
100
AcDbBlockReference
  2
*X9
 10
0.0
 20
0.0
 30
0.0
  0
INSERT
  5
66
100
AcDbEntity
  8
DEFAULT
 62
         0
 48
0.0
100
AcDbBlockReference
  2
*X10
 10
0.0
 20
0.0
 30
0.0
  0
ENDSEC
  0
SECTION
  2
OBJECTS
  0
DICTIONARY
  5
19
100
AcDbDictionary
  3
ACAD_GROUP
350
1A
  3
ACAD_MLINESTYLE
350
1B
  0
DICTIONARY
  5
1A
102
{ACAD_REACTORS
330
19
102
}
100
AcDbDictionary
  0
DICTIONARY
  5
1B
102
{ACAD_REACTORS
330
19
102
}
100
AcDbDictionary
  3
STANDARD
350
1C
  0
MLINESTYLE
  5
1C
102
{ACAD_REACTORS
330
1B
102
}
100
AcDbMlineStyle
  2
STANDARD
 70
         0
  3

 62
         0
 51
90.0
 52
90.0
 71
         2
 49
0.5
 62
       256
  6
BYLAYER
 49
-0.5
 62
       256
  6
BYLAYER
  0
ENDSEC
  0
EOF
